Oops, an error
Loading. Please wait.

Blue Spotted Tail Chords

version 3
version 3

Whole song

75,361 views 165 this week
6 commentsread comments
1 2 3 4 5
x 71
add to favorites
launch autoscroll
font size
0
reset
transpose
0
reset
simplify chords
display chords
guitar tuner
Autoscroll
slow
fast
+/-
esc
set tempo
stop
Help us to improve Ultimate-Guitar.com Take our survey!
×
Author
Capo
7th fret
Standard Tuning
Capo 7


Verse 1

C                F                  C
Why in the night sky are the lights hung?
Am               Em                F
Why is the Earth moving 'round the sun?
Dm              Am             Em             F
Floating in the vacuum with no purpose, not a one
C                F                  Am
Why in the night sky are the lights hung?

 Fill:
e|---------------------------------|
B|---------------------------------|
G|---------------------------------|
D|---------------------------------|
A|-0--2--3--2--0--------------3----|
E|----------------3--1--3--1-------|


[Verse 2]

C                F           C
Why is life made only for to end?
Am          Em               F
Why do I do all this waiting then?
Dm                  Am                Em       F
Why this frightened part of me that's fated to pretend?
C                F           Am
Why is life made only for to end?

 Fill:
e|---------------------------------|
B|---------------------------------|
G|---------------------------------|
D|---------------------------------|
A|-0--2--3--2--0--------------3----|
E|----------------3--1--3--1-------|


[Verse 3]

C           F          C
In the city only for a while
Am               Em              F
Here to face the fortune and the bile
Dm                 Am       Em                F
I heard you on the radio, I couldn't help but smile
C           F          Am
In the city only for a while


 Fill:
e|---------------------------------|
B|---------------------------------|
G|---------------------------------|
D|---------------------------------|
A|-0--2--3--2--0--------------3----|
E|----------------3--1--3--1-------|


[Bridge Chords]

Bb6?: x13030
Bm7: 024030
F#sus; x44422
F#: 244322
C/G: 3x201x
G: 320033


[Verse 4/Outro]

C                F                  C
Why in the night sky are the lights hung?
Am               Em                F
Why is the Earth moving 'round the sun?
Dm              Am             Em             F
Floating in the vacuum with no purpose, not a one
C                F                  Am
Why in the night sky are the lights hung?

Fill:
e|---------------------------------|
B|---------------------------------|
G|---------------------------------|
D|---------------------------------|
A|-0--2--3--2--0--------------3----|
E|----------------3--1--3--1-------|

end on C.

I wanted to get the whole song up, bridge included. Should be 100%.
Suggest correction
comments
print report bad tab
6 comments total. Showing first comments.
0 reply
Apietsch22 31 Sep 19, 2012 09:48 PM

Do you know the strumming pattern?

0 reply
Bloodbarn 34 Nov 22, 2013 09:18 PM

finally a good tab for this amazing song, thank you sir.

0 reply
lukemtesta 10 Sep 16, 2014 03:23 PM, edited at 03:24 pm

The verse strumming pattern is 1 3 2 4 (thumb to little finger 1-5). This is constant for the fills with the exception of the thumbs pattern.The middle 8's finger pattern is: [1-2-3-4] (ghost) 1-3-2-3 1-3-2-3 1-3-2-4Hope this helps :D

guest
You may want to rate the tab now too:
select rating
Wanna post a correction for this tab? Suggest correction