Oops, an error
Loading. Please wait.

English House Bass Tab

931 views 3 this week
no commentswrite comment
1 2 3 4 5
please rate
add to favorites
launch autoscroll
font size
0
reset
guitar tuner
Autoscroll
slow
fast
+/-
esc
set tempo
stop
Help us to improve Ultimate-Guitar.com Take our survey!
×
Contributor
Difficulty
Teppo 74
intermediate
Song: English House
Artist: Fleet Foxes
Album: Sun Giant (2008)

Bass tab
Tabbed by: Teppo

Intro

G---------------------------------------------------------------------|
D---------------------------------------------------------------------|
A--6---------6---------6--------6--------6--6--6--6--6--6--6--6--6----|
E---------------------------------------------------------------------|


G-------------------------------------------------------------------|-------------------|
D-8/10-8------------------------------------------------------------|-------------------|
A---------10-8--8/10-8-6---------8/10-8--6--3--3/6--3--1------1/6---|-6------6------6---|repeat
E------------------------8-6------------------------------3---------|---6-8----6-8------|


"You go with your two feet bare, down through the cold lane there to Brighton"

G------------------------------|
D------------------------------|
A---6--6---6--6------repeat----|
E--------6------6--------------|


"A country house, a liar and a louse live there"

G-----------------------------|-------------------|
D-----------------------------|-------------------|
A-------------4-6---------1/6-|-6------6------6---|
E--2/4-4-4--------6-4-4-------|---6-8----6-8------|


"And go with your arms held wide, happiness in your eyes, convincing"

G---------------------------------------------------------|
D---------------------------------------------------------|
A-6------6------6-----6-------4-3-1--4-3-1--4-3-1--4-3-1--|
E---6-8----6-8----6-8---6-8-------------------------------|


"And stay the night, turn out every light you see"
"And lay them down, buried in the ground for me"

G-----------------------------|-------------------|
D-----------------------------|-------------------|
A-------------4-6---------1/6-|-6------6------6---|
E--2/4-4-4--------6-4-4-------|---6-8----6-8------|


Interlude

G------------------------------------------------------------------------------------------------|
D------------------------------------------------------------------------------------------------|
A-----------------------------------------------------------------------------------------6------|
E--1-1-1-1-1-1-1-1-2-2-2-2-2-2-2-2-1-1-1-1-1-1-1-1-2-2-2-2-2-2-2-2-4-4-4-4-4-4-4-4-6-8-6---------|


"Oh, my love
Oh, my love
Oh, my love
Oh, my love"

"The tongues of the creatures wait
Drawn to the fragile legs you walk on
A cold wind blows, Brighton to the coast for me
A cold wind blows, Brighton to the coast for me"

"Oh, my love
Oh, my love
Oh, my love
Oh, my love"

"Oh, my love
Oh, my love
Oh, my love
Oh, my love"

G------------------------------------------------------------------|
D-8/10-8-----------------------------------------------------------|
A---------10-8--8/10-8-6-------6-----6------------6-----6----------|
E------------------------8-6------6-----8--6--------6-------8---6--|


Ending


G----------------------------------------------------------------|
D----------------------------------------------------------------|
A---------------------------------------------------------6------|
E--1-1-1-1-1-1-1-1-2-2-2-2-2-2-2-2-4-4-4-4-4-4-4-4-6-8-6---------|

| /  slide up
| \  slide down
| h  hammer-on
| p  pull-off
| ~  vibrato
| +  harmonic
| x  Mute note
comments
We did not receive enough feedback on this tab! Please rate:
print report bad tab
1 2 3 4 5
I want to post or [tab]
guest
You may want to rate the tab now too:
select rating
Please do not post tabs as comments. Select "correction" instead!