Oops, an error
Loading. Please wait.

False Knight On The Road Tab

version 1
version 1

Whole song

6,417 views 9 this week
no commentswrite comment
1 2 3 4 5
accurate
x 6
add to favorites
launch autoscroll
font size
0
reset
how to read this tab
guitar tuner
Autoscroll
slow
fast
+/-
esc
set tempo
stop
Help us to improve Ultimate-Guitar.com Take our survey!
×
Difficulty
Tuning
intermediate
D A D G B E
Drop D Tuning with a capo at the 5th fret

I think this should be pretty accurate. It's my first tab so hope you enjoy.

|-----------------------------------|
|-----------------------------------|
|----------4-4p2--------------------|
|------0-0--------4-2p0-------0-----|
|--0-2--------------------2p0-------|
|--0-0-0--00-0----0-0---0-0---0-0-0-|

|--------------------------------------|
|-----------------------------2--------|
|----4-4p2--2---------0---0-----0---0--|
|0-0----------4-2p0-2---2---2-----2----|
|-------------------0--00--00-0--00--0-|
|0--00-0----0-0-0----------------------|

|----------------------------------|
|----------------------------------|
|----2-0-0-----------------0-------|
|2p4-------4-2-0-4-2p0---0---0-----|
|----------------------2-------2---|
|0---0-0-0-0-0-0-0-0---0--00--00-0-|

|----------------------------------|
|----------------------------0-----|
|-----4-4p2----------------0---0---|
|0-0---------4-2p0-------0-------0-|
|--------------------2p0-----------|
|0--0-0-0----0-0---0-0---5--00--00-|

|------------------------|
|------------------------|
|0-0---------0-0---------|
|----4-0---------4-0-----|
|--------2-0---------2-0-|
|5-5-0-0-0-0-5-5-0-0-0-0-|
Suggest correction
comments
print report bad tab
guest
You may want to rate the tab now too:
select rating
Please do not post tabs as comments. Select "correction" instead!