Oops, an error
Loading. Please wait.

I Let You Tab

711 views 15 this week
1 commentread comment
1 2 3 4 5
please rate
add to favorites
launch autoscroll
font size
0
reset
how to read this tab
guitar tuner
Tab Pro tools
  • play this tab
  • loop segment
  • change instrument
  • show fretboard
  • metronome
×
Best way to learn
"I Let You"
Autoscroll
slow
fast
+/-
esc
set tempo
stop
Difficulty
Tuning
intermediate
C G C G C E
-------------------------------------------------------------------------------
			     I Let You - Robin Pecknold (Fleet Foxes)
-------------------------------------------------------------------------------
Tabbed by:
E-mail: andrewbeckett6@gmail.com

Tuning: CGCEGC (Open D tuning, whole step down)

INTRO

c|----0---------------------0------------------0---------0-------0------0--------|
G|-3----0----------------5----0------------------0----0-------0------0-----------|
E|--------1~~--------------------5~~-------10---------------5------5-------------|
C|-3---------------------5-------------------------10----------------------------|
G|--------2~~--------------------7~~-------8-------9-----------------------------|
C|----------------------------------------------------------5------5-------------|

VERSE

c|----0---------0----0---------0----0----------0-------0-------0--|
G|-3----0----0----5----0----0---------0-----0-------0-------0-----|
E|---------1--------------5------10---------------5-------5-------|
C|-3--------------5----------------------10-----------------------|  2x
G|---------2--------------7------8-------9------------------------|
C|------------------------------------------------5-------5-------|
 After the band had played...


c|------0-------0------0------0----------------------------------------------|
G|---0-------0------0------0-------------------------------------------------|
E|-3-------5------5------5---------------------------------------------------|
C|---------------------------------------------------------------------------|
G|---------------------------------------------------------------------------|
C|-3-------5------5------5---------------------------------------------------|
Walked for a while...


It goes back to the verse and plays through again until you come to the refrain

REFRAIN

c|----0-----------0----------0----------0--|
G|-9----0-----0----------0----------0------|
E|---------7----------7----------7---------|
C|-9--------------0----------0----------0--|
G|------------9----------9----------9------|
C|---------0----------0----------0---------|
Aaaaaaand I knew..

c|--------0---------0-------0-------0-------0-------0-------0-------0------------|
A|-----0---------0-------0-------0-------0-------0-------0-------0---------------|
E|-11--------5--------5-------5-------3-------1-------1-------1------------------|
C|-------------------------------------------------------------------------------|
G|-------------------------------------------------------------------------------|
C|-10--------5--------5-------5-------3-------1-------1-------1------------------|
And I knew..


BRIDGE

c|-3-0---------1------1------1---|
A|-----0----1------1------1------|
E|--------1------1------1--------|  3x
C|-------------------------------|
G|-1-----------------------------|
C|--------1------1------1--------|
So I told you we're through...

c|------0------0-------0-------0-------0-------0-----|
A|---0------0-------0-------0-------0-------0--------|
E|-0------0------5-------5-------5-------5-----------|
C|---------------------------------------------------|
G|---------------------------------------------------|
C|-0------0------5-------5-------5-------5-----------|
              Say it first


It goes back through everything once more


Here are the fingerings of the "chords" he uses in order:

Eb*:       (x x 3 x 3 0)
F/A:       (x 2 x 1 0 0)
F*:         (x x 5 x 5 0)
Am:       (x 7 x 5 0 0)
Ebmaj7: (x 8 x 10 0 0)
E7:         (x 9 10 x 0 0)
F:           (5 x 0 5 0 0)
Eb:         (3 x x 3 0 0)
Am*:      (x x 9 0 9 0)
Cmaj7:   (0 9 0 7 0 0)
Bb:         (10 x x 11 0 0)
Bb*         (x 1 x x 0 0)
Db:         (1 x x 1 0 0) or ( 1 1 1 1 1 1)
C:           (0 0 0 0 0 0)
comments
We did not receive enough feedback on this tab! Please rate:
print report bad tab
1 2 3 4 5
1 comment total.
0 reply
xalemander wrote on April 15 2014, 05:24 pm

actually i did'nt knew that this song exist, till you put up your tab on here - and i finally found some live-performences on the internet. brilliant and quiet song!! great tab - think it's pretty perfect.
though the lyrics are missing - here they are:


After the band had played, you kissed my cheek
And you told me to meet you there later.
So I walked through the university
And auditioned your new friend, the painter.

I walked for awhile
I walked for awhile

I found the house and I walked in the door
You were there, you were wearing his jacket.
He took his shirt off as he went to pour,
Had a paper-back in his back pocket.

And I knew
And I knew
And I knew
And I knew

So I told you we?re through
I made up some excuse
But I just wanted to
Say it first

By then the bus wasn?t running no more
So I sat on the couch with some no-one.
I couldn?t sleep so I laid on the floor,
And I heard you two letting your hair down.

Lettin? it down
Lettin? it down

Longest night
Longest night
Longest night

Sometimes when I light a cigarette I
think about the first time that I met you.
Outside the show in the dirt colored snow
You offered me one and I let you.

I want to post or [tab]
guest
You may want to rate the tab now too:
select rating
Please do not post tabs as comments. Select "correction" instead!