Oops, an error
Loading. Please wait.

Icicle Tusk Tab

14,496 views 18 this week
no commentswrite comment
1 2 3 4 5
excellent!
x 11
add to favorites
launch autoscroll
font size
0
reset
how to read this tab
guitar tuner
Tab Pro tools
  • play this tab
  • loop segment
  • change instrument
  • show fretboard
  • metronome
Autoscroll
slow
fast
+/-
esc
set tempo
stop
intro:

    C
E------0-----0-----0-----0-----0-----0-----0-------0---|
B------1-----1-----1-----1-----1-----1-----1-------1---|
G---------0-----------0-----------0--------------------|
D---------------------------------------------0h2------|
A---3-----------3-----------3-----------3--------------|
E------------------------------------------------------|

picking pattern in the verses is simmilar to the intro.

chords for the verses:

     C   C7    F   Fm7  A#7

E----0----0----1----1----1----|
B----1----1----1----1----3----|
G----0----3----2----1----1----|
D----2----2----3----1----3----|
A----3----3----3----3----1----|
E----x----x----1----1----x----|


C
I'll shoot you dead


For the father

       C7           F
Of the coal miner's daughter

            Fm7
Beneath the icicle tusk

A#7                  C
You and me among the flattering dusk


In my haste I draw my weapon
Designing your final lesson
As you recede to the floor
All is silent but the fluttering door

chorus

Twenty-five grand on the table
Of the high wall street stable
I'm not responsible for
The reputation of the
Neighborhood whore

But I'm a keyhole peeker
And you're my surveilance keeper
And though my memory rusts
I will always see the icicle tusk

chorus

C          A#m
And I must admit
             F              G
That it gets lonesome on my shelf
F7M             C7M
This much I can tell
F7M             C7M   F7M  C7M
This much I can tell


chorus (the "ohhohhhohohoh" part):

     Dm      G6       Dm  C  Dm     C            C7

E-----1-------3-------5---3---1------0-----0-------0-----0------|
B-------3-------5-----6---5-----3------1-----1-------1-----1----|
G---------2-------4---------------2------0-----0-------3-----3--|
D-----0-----------------------0---------------------------------|
A------------------------------------3-----3-------3-----3------|
E-------------3-------------------------------------------------|

     Dm     G6     Dm7    Dm     C

E---------------------------------------------------------|
B-----3------5-------6-----6-----1-----1-----1-----1------|
G-------2------4-------5-----5-----0-----0-----0-----0----|
D---------3------5-------7-----7-----2-----2-----2-----2--|
A---------------------------------------------------------|
E---------------------------------------------------------|


picking pattern and chords for the ending (the last verse):


    C                        A#m                      F
E-----------------------------------------------------3-----1-----1-----1-------|
B---1-----1-----1-----1------2-----2-----2-----2--------1-----1-----1-----1-----|
G-----0-----0-----0-----0------3-----3-----3-----3--------2-----2-----2-----2---|
D-------2-----2-----2-----2------2-----2-----2-----2----------------------------|
A-------------------------------------------------------------------------------|
E-------------------------------------------------------------------------------|
    and i must               admit that it gets       lonsome on my

   G                           F7M                       c7M
E--3-----3------3-----3--------0-----0-----0-----0---------------------------------|
B----0-----0------0-----0--------1-----1-----1-----1-----0-----0-----0-----0-------|
G------0-----0------0-----0--------2-----2-----2-----2-----0-----0-----0-----0-----|
D------------------------------------------------------------2-----2-----2-----2---|
A----------------------------------------------------------------------------------|
E----------------------------------------------------------------------------------|
   shelf                       this much i can           tell

   F7M                       C7M                        F7M C7M
E--0-----0-----0-----0----------------------------------0---0---|
B----1-----1-----1-----1-----0-----0-----0-----0--------1---0---|
G------2-----2-----2-----2-----0-----0-----0-----0------2---0---|
D--------------------------------2-----2-----2-----2----3---2---|
A-----------------------------------------------------------3---|
E---------------------------------------------------------------|
   this much i can           tell
comments
print report bad tab
I want to post or [tab]
guest
You may want to rate the tab now too:
select rating
Please do not post tabs as comments. Select "correction" instead!