Oops, an error
Loading. Please wait.

In The Hot Hot Rays Tab

version 1
version 1

Whole song

4,581 views 21 this week
1 commentread comment
1 2 3 4 5
excellent!
x 5
add to favorites
launch autoscroll
font size
0
reset
how to read this tab
guitar tuner
Autoscroll
slow
fast
+/-
esc
set tempo
stop
Help us to improve Ultimate-Guitar.com Take our survey!
×
Author
Difficulty
intermediate
-------------------------------------------------------------------------------
                                            In the Hot Hot Rays - Fleet Foxes
-------------------------------------------------------------------------------
Tabbed by: Phantomtollboy

Tuning: Standard


Chords used:


    Dm7   Bb   G    G7   Bb*  C    F    Ab   Eb   Dm   Db   F7

e|---5----6----3----3----1----3----1----4----6----5----4----1--------------|
B|---6----6----3----3----3----5----1----4----8----6----6----1--------------|
G|---5----7----4----4----3----5----2----5----8----7----6----2--------------|
D|---7----8----5----3----3----5----3----6----8----7----6----1--------------|
A|---5----8----5----5----1----3----3----6----6----5----4----3--------------|
E|--------6----3----3--------------1----4-------------------1--------------|


Intro:

         Dm7                                        Bb    
e|-------------------------------------------------------------------------|
B|---10p8------------------------------------------------------------------|
G|--------10----10p9h10p9h10---7p5h7p5h7--5s2---3p2h3p2h3---7p5h7p5h7------|
D|-------------------------------------------------------------------------|
A|-------------------------------------------------------------------------|
E|-------------------------------------------------------------------------|

                               G       G7     G      G7
e|--------------------------------10--------------10-----------------------|
B|--------------------9s10---9s10-----8--9--9s10-----8--9------------------|
G|---12p10h12p10h12--------------------------------------------------------|
D|-------------------------------------------------------------------------|
A|-------------------------------------------------------------------------|
E|-------------------------------------------------------------------------|

     Bb*    C      F
e|-------------------------------------------------------------------------|
B|---10--11---10---8-------------------------------------------------------|
G|----------9----9---10--10------------------------------------------------|
D|-------------------------------------------------------------------------|
A|-------------------------------------------------------------------------|
E|-------------------------------------------------------------------------|


Verse 1:

 Dm7
 Heat, like a dead weight

                    Bb
 Still coverin' the street outside

                   G        G7     G   G7
 So heavy that the dogs can't hide

        Bb*   C   F
 In the hot, hot rays



Verse 2:

 Dm7
 Out on the sidewalk
      
                        Bb
 It's a river where the children go

                  G      G7   G  G7
 Out enjoying the arctic show

        Bb*   C   F
 In the hot, hot rays

        Bb*   C   F
 In the hot, hot rays



         Dm7                                        Bb    
e|-------------------------------------------------------------------------|
B|---10p8------------------------------------------------------------------|
G|--------10----10p9h10p9h10---7p5h7p5h7--5s2---3p2h3p2h3---7p5h7p5h7------|
D|-------------------------------------------------------------------------|
A|-------------------------------------------------------------------------|
E|-------------------------------------------------------------------------|

                               G       G7     G      G7
e|--------------------------------10--------------10-----------------------|
B|--------------------9s10---9s10-----8--9--9s10-----8--9------------------|
G|---12p10h12p10h12--------------------------------------------------------|
D|-------------------------------------------------------------------------|
A|-------------------------------------------------------------------------|
E|-------------------------------------------------------------------------|

     Bb*    C      F
e|-------------------------------------------------------------------------|
B|---10--11---10---8-------------------------------------------------------|
G|----------9----9---10--10------------------------------------------------|
D|-------------------------------------------------------------------------|
A|-------------------------------------------------------------------------|
E|-------------------------------------------------------------------------|




 Bb*    C        F 
 In the hot rays I get old



Solo 1:

        F              Ab         Eb         Dm      Db       Ab
e|-------------------------------------------------------------------------|
B|--------8------------9-------------6-----9------------4------------------|
G|---5s10---10----8h10---10-10--10s8---8-----7-7-7--7s6---6---5-5-5--------|
D|-------------10------------------------8------------------6--------------|
A|-------------------------------------------------------------------------|
E|-------------------------------------------------------------------------|


               Bb*             C
e|-------------------------------------------------------------------------|
B|-------------------------------------------------------------------------|
G|---5--3--1-----------------3s5--5-5-5-5----------------------------------|
D|-------------3--3--3-3-3-3-----------------------------------------------|
A|-------------------------------------------------------------------------|
E|-------------------------------------------------------------------------|

**Repeat Solo Over Bridge**


Bridge:

(C)            F                      Ab
 I could never know what the dead man sees

               Eb                     Dm
 I could never know what the deaf man hears

    Db                     Ab
 Or know what the dead man fears

      Bb*           C
 Even if you were incomplete


                F
 Brother let it go

                  Ab
 And I'll find my way
              
                Eb             Dm
 If you want to know Indian summer

                Db                  Ab         
 I will make it back here to you somehow

               Bb*    
 What have you ever thought

 C
 Underneath the fire


Solo 2:

       Bb*    C        F    F7    Bb*    C      Dm7
e|----------8--------------------------8-----------------------------------|
B|---3s10-----8---6s5s10--------3s10-----8---6s5s3-------------------------|
G|-------------------------------------------------------------------------|
D|-------------------------------------------------------------------------|
A|-------------------------------------------------------------------------|
E|-------------------------------------------------------------------------|


Final Verse:
 
 Dm7
 I try to play god

                        Bb
 Do my best to keep the heat at bay

                           G    G7     G   G7
 Maybe that would make you want to stay

        Bb*   C    F
 In the hot, hot rays

        Bb*   C    F
 In the hot, hot rays

        Bb*   C    F
 In the hot, hot rays

Suggest correction
comments
print report bad tab
1 comment total.
+1 reply
shocke7 105 wrote on February 26 2013, 12:53 pm

Incredible

guest
You may want to rate the tab now too:
select rating
Please do not post tabs as comments. Select "correction" instead!