Oops, an error
Loading. Please wait.

Kept Woman tab

997 views 72 this week
2 commentsread comments
1 2 3 4 5
x 3
add to favorites
×
Save as Personal and add changes to this tab that will be seen only by you. Learn more ›
×
You can save this tab as Personal to edit and correct it or add notes. All changes will be seen only by you. Learn more »
launch autoscroll
font size
0
reset
how to read this tab
guitar tuner
edit
Autoscroll
slow
fast
+/-
esc
set tempo
stop
About this tab version
This is from Robin Pecknold's solo performance of the song https://www.youtube.com/watch?v=RTwna0gYQow It might not be 100% accurate but at least it can get you started since the chords chart wasn't so clear. Robin plays the first two notes of the triplets with his thumb throughout the song, the third one with his index and then adds flourishes with his middle finger. All relative to capo 2. Was this info helpful? Yes No
[Intro and verses]
e|------------------------|------------------------|-------------------------------------|
B|------------------------|----------------6-------|-------------------------------------|
G|----0-----0-----0-----0-|----0-----0-----------0-|----0-----0-----0-----0-----0------0-|
D|--7-----7-----7-----7---|--7-----7-----7-----7---|--7-----7-----7-----7-----7------7---|
A|5-----5-----5-----5-----|8-----8-----5-----5-----|5-----5-----5-----5-----5------5-----|
E|------------------------|------------------------|-------------------------------------|

e|------0-----------------|------0-----------------|-------------------------|
B|8---------8-------------|6---------6-------------|----6-----------6-----6--|
G|----0-----------0-----0-|----0-----------0-----0-|---(0)----0----(0)---(0)-|
D|--9-----9-----9-----9---|--7-----7-----7-----7---|--7-----7-----7-----7----|
A|7-----7-----10----10----|5-----5-----8-----8-----|5-----5-----5-----5------|
E|-------------------------------------------------|-------------------------|


e|------0-----------0-----|------------------------|------------------------|
B|6---------6-0-----------|0---------0h1-----------|6-----------------------|
G|----5-----5-----0-----0-|----0-----------2-----2-|----0-----0-----0-----0-|
D|--7-----7-----5-----5---|--3-----3-----3-----3---|--7-----7-----7-----7---|
A|8-----8-----------7-----|------------------------|------------------------|
E|------------0-----------|1-----1-----1-----1-----|6-----6-----5-----5-----|

e|-------------------------||
B|-------------------------||
G|----0-----0-----0-----0--||:
D|--7-----7-----7-----7----||
A|5-----5-----5-----5------||  repeat when going into verse.
E|-------------------------||

When going into bridge, add :

e|------------------------|
B|6-----------------------|
G|----0-----0-----0-----0-|
D|--7-----7-----7-----7---|
A|------------------------|
E|6-----6-----5-----5-----|

[Bridge] 
("too long at the end of the table...")
e|------0-----------------|------0-----------------|------3---------3-------|------3-----------------|
B|3---------3-------------|3---------3-------------|1---------0-----------0-|1---------0-----------0-|
G|----5-----------5-----5-|----5-----------5-----5-|----0-------------------|----0-----------0-------|
D|--4-----4-----4-----4---|--4-----4-----4-----4---|--2-----2-----0-----0---|--2-----2-----0-----0---|
A|------------------------|------------------------|------------------------|------------------------|
E|5-----5-----5-----5-----|5-----5-----5-----5-----|3-----3-----3-----3-----|3-----3-----3-----3-----|

e|------------------------|------------------0-----|6----(6)----6-----6-----|
B|1-----1-----0-----0-----|1-----1-----0-----------|6----(6)----6-----6-----|
G|----2-----2-----0-----0-|----2-----2-----0-----0-|----7-----7-----7-----7-|
D|--3-----3-----3-----3---|--3-----3-----3-----3---|--8-----8-----8-----8---|
A|------------------------|------------------------|------------------------|
E|1-----1-----1-----1-----|1-----1-----1-----1-----|6-----6-----6-----6-----|

e|1-----1-----1-----1-----|6-----6-----6-----6-----|
B|1-----1-----1-----1-----|6-----6-----6-----6-----|
G|----2-----2-----2-----2-|----7-----7-----7-----7-| then straight into intro (lyricless verse)
D|--3-----3-----3-----3---|--8-----8-----8-----8---| 
A|------------------------|------------------------|
E|1-----1-----1-----1-----|6-----6-----6-----6-----|

[Outro] 
at the end of the last verse, Robin simply adds a D chord strum
e|--------------------------2-----------2|
B|6-------------------------3-----------3|
G|----0-----0-----0-----0---2-----------2|
D|--7-----7-----7-----7---0-0-----------0|
A|------------------------0--------------|
E|6-----6-----5-----5-----0--------------|


************************************

| (n) Ghost note
| h   Hammer-on
| p   Pull-off

************************************
Suggest correction
Creating personal tab
Creating personal tab
You can edit any tab online and save it as your Personal.

You can edit, replace or remove any tab part or add personal notes – all changes will be seen only by you.

Personal tabs can be accessed anytime from any device, even offline.
Learn more »
Give kudos to tab author, rate the tab!
1 2 3 4 5
comments
print report bad tab
2 comments total.
0 reply
MrJoker06 10 Jul 01, 2017 04:40 PM

I Have to thank you for this very nice transcription. I'm practicing it very hard

0 reply
MrJoker06 10 Jul 02, 2017 12:18 PM

Maybe a tinny rectification on the third line > 2nd measure of th intro/verse

We can hear a hammer on the 2nd fret of the 3rd string also like :

e|-----------------------------|
B|0-----------0h1--------------|
G|----0-----0h2--------2-----2-|
D|--3-----3-------3-----3------|
A|-----------------------------|
E|1-----1-------1-----1--------|

guest
You may want to rate the tab now too:
select rating
Wanna post a correction for this tab? Suggest correction