Oops, an error
Loading. Please wait.

Mykonos bass

version 1
version 1

Whole song

Interactive

3,551 views 27 this week
1 commentread comment
1 2 3 4 5
x 4
add to favorites
×
Save as Personal and add changes to this tab that will be seen only by you. Learn more ›
×
You can save this tab as Personal to edit and correct it or add notes. All changes will be seen only by you. Learn more »
launch autoscroll
font size
0
reset
guitar tuner
edit
Autoscroll
slow
fast
+/-
esc
set tempo
stop
Fleet Foxes - Mykonos
--------------------------
this is my first tab ever, its mostly right i think


bass enters at first chorus 0:39

chorus
G---------------------|----------------------|------------------------|
D---------------------|----------------------|------------------------|
A-----------2--4---44r|----------2--4---44---|----------2--4---4-4r---|
E--2----2-5-----------|-2----2-5----------54-|-2----2-5---------------|

... of the mess you made 0:50
G---------------------------------------------|
D---------------------------------------------|
A-----------2--0---02r------------------------|
E--4----0-4-----------------------------------|

0:55
G----------------------------------------------|
D----------------------------------------------|
A--4----2----------------------4---------------|
E-----------5----4----5----4-------------------| (x2)

verse 2
G--------------------------------------------------------------|
D--------------------------------------------------------------|
A--4---4-2---2-------2---2---------2---------------------------|
E--------------5---5-------4---0-4---5---5-5-------------------| (x2)


bridge (2:24)
G-------------------------------------------------------------------|
D-------------------------------------------------------------------|
A------------------4---2-------2-------------------4---2--2--2--2---|
E--5-4-2---4---5-----------2-------5-4-2---4---5--------------------|

G-------------------------------------------------------------------|
D-------------------------------------------------------------------|
A--4-4-4-4-2--2------2--4-4-4-4-2--2--------------------------------|
E----------------5-5------------------5-5-5-4-2---------------------|

G-------------------------------------------------------------------|
D-------------------------------------------------------------------|
A------------------4---2-------2-------------------4---2--2--2--2---|
E--5-4-2---4---5-----------2-------5-4-2---4---5--------------------|

2:59
G--------------------------------------|
D--------------------------------------|
A----2-4~-----2--2---------------------|(x2)
E--5----------------5~-----------------|

G-------------------------------------------------------------------|
D-------------------------------------------------------------------|
A------------------4---2-------2-------------------4---2--2--2--2---|
E--5-4-2---4---5-----------2-------5-4-2---4---5--------------------|

i'm not 100% sure it stops at 3:23, but you can continue playing an octave higher until 
the song fades out

08/30/13
Suggest correction
Creating personal tab
Creating personal tab
You can edit any tab online and save it as your Personal.

You can edit, replace or remove any tab part or add personal notes – all changes will be seen only by you.

Personal tabs can be accessed anytime from any device, even offline.
Learn more »
comments
print report bad tab
1 comment total.
+2 reply
Pale_Pilgrim 702 Feb 12, 2015 04:41 PM

Just thought I'd show my suggestion for the ending riff, which seems like a 'bouncy' folk rhythm type of deal (The Fratellis use one on Whistle for the Choir, Flogging Molly use it). Also re-structured the tab for ease of reading.

Chorus
[0:39] ... and you were called Mykonos
G---------------------|----------------------|------------------------|
D---------------------|----------------------|------------------------|
A-----------2--4---44r|----------2--4---44---|----------2--4---4-4r---|
E--2----2-5-----------|-2----2-5----------54-|-2----2-5---------------|

[0:50] ... of the mess you made
G------------------------------------|
D------------------------------------|
A-----------2--0---02r---------------|
E--4----0-4--------------------------|

[0:55]
G------------------------------------|
D------------------------------------|
A--4----2-----------------------4----|
E-----------5----4----5----4---------| (x2)

Verse 2
G--------------------------------------------------------------|
D--------------------------------------------------------------|
A--4---4-2---2-------2---2---------2---------------------------|
E--------------5---5-------4---0-4---5---5-5-------------------| (x2)

Repeat Chorus

Bridge
[2:24]
G-------------------------------------------------------------------|
D-------------------------------------------------------------------|
A------------------4---2-------2-------------------4---2--2--2--2---|
E--5-4-2---4---5-----------2-------5-4-2---4---5--------------------|

G-------------------------------------------------------------------|
D-------------------------------------------------------------------|
A--4-4-4-4-2--2------2--4-4-4-4-2--2--------------------------------|
E----------------5-5------------------5-5-5-4-2---------------------|

G-------------------------------------------------------------------|
D-------------------------------------------------------------------|
A------------------4---2-------2-------------------4---2--2--2--2---|
E--5-4-2---4---5-----------2-------5-4-2---4---5--------------------|

[2:59]
G--------------------------------------|
D--------------------------------------|
A----2-4~-----2--2---------------------|(x2)
E--5----------------5~-----------------|

G-------------------------------------------------------------------|
D-------------------------------------------------------------------|
A------------------4---2-------2-------------------4---2--2--2--2---|
E--5-4-2---4---5-----------2-------5-4-2---4---5--------------------|

[3:23]
G---------------------------|
D---------------------------|
A--4-----4-----2-----2------| (repeat as necessary)
E-----4-----4-----2-----54--|

guest
You may want to rate the tab now too:
select rating
Wanna post a correction for this tab? Suggest correction