Oops, an error
Loading. Please wait.

Oliver James Tab

version 2
version 2

Whole song

Interactive

31,537 views 48 this week
2 commentsread comments
1 2 3 4 5
excellent!
x 12
add to favorites
launch autoscroll
font size
0
reset
how to read this tab
guitar tuner
Autoscroll
slow
fast
+/-
esc
set tempo
stop
Help us to improve Ultimate-Guitar.com Take our survey!
×
Author
Fleet Foxes - Oliver James
==========================


r = release


intro:	e|-----------------|------------------------------------------------|
	B|-----------------|-1--0-----0-----------3---3---3---1---1---1---0-|
	G|-2r0-----0-------|-------2------0---------------------------------|
	D|------2------2---|------------------0-----------------------------|
	A|-----------------|------------------------------------------------|
	E|-3----3----3---3-|-3--3--3----3---3---3---3---3---3---3---3---3---|

	e|------------------------------------|
	B|-1r0----0---------------0-----------|
	G|------2-----0-------0-------0---0---|
	D|----------------0-------------------|
	A|------------------------------------|
	E|-3----3---3---3---3---3---3---3--*3-|



	(n.c.)	
v1:	*on the way to your brothers house in the valley dear
	by the river bridge a cradle floating beside me
	in the widest water on the bank against the stone
	you will lift his body from the shore and bring him home



c1:	e|-----------------|----------------------------------------------------|
	B|-----------------|-1--0-----0-----------3---3---3---1---1---1---0---0-|
	G|-2r0-----0-------|-------2------0-------------------------------------|
	D|------2------2---|------------------0---------------------------------|
	A|-----------------|----------------------------------------------------|
	E|-3----3----3---3-|-3--3--3----3---3---3---3---3---3---3---3---3---3---|

	   oliver james washed in the rain, no longer

	e|----------------------------------|
	B|-1r0----0---------------0---------|
	G|------2-----0-------0-------0---0-|
	D|----------------0-----------------|
	A|----------------------------------|
	E|-3----3---3---3---3---3---3---3---|

	e|-----------------|----------------------------------------------------|
	B|-----------------|-1--0-----0-----------3---3---3---1---1---1---0---0-|
	G|-2r0-----0-------|-------2------0-------------------------------------|
	D|------2------2---|------------------0---------------------------------|
	A|-----------------|----------------------------------------------------|
	E|-3----3----3---3-|-3--3--3----3---3---3---3---3---3---3---3---3---3---|

	   oliver james washed in the rain, no longer

	e|------------------------------------|
	B|-1r0----0---------------0-----------|
	G|------2-----0-------0-------0---0---|
	D|----------------0-------------------|
	A|------------------------------------|
	E|-3----3---3---3---3---3---3---3---3-|

	 	


v2:	e|------------------------------------------------------------|
	B|------------------0-----------------------------------------|
	G|--------------0-------0-------0-------------------0---0---4-|
	D|------0---4---------------4-------4---0-------0-------------|
	A|-2--3-------------------------------------2-----------------|
	E|-3--3---3---3---3---3---3---3---3---3---3---3---3---3---3---|
	
	  on the kitchen table which your grandfather did make
	  you and your de-licked way will slowly clean his face

	e|------------------------------------------------------------|
	B|------------------0-----------------------------------------|
	G|--------------0-------0-------0-------------------0---4---0-|
	D|------0---4---------------4-------4---0-------0-------------|
	A|-2--3-------------------------------------2-----------------|
	E|-3--3---3---3---3---3---3---3---3---3---3---3---3---3---3---|

	  and you will remember when you rehearsed the actions of
	  an innocent and anxious mother full of anxious love
	


c2:	e|-----------------|----------------------------------------------------|
	B|-----------------|-1--0-----0-----------3---3---3---1---1---1---0---0-|
	G|-2r0-----0-------|-------2------0-------------------------------------|
	D|------2------2---|------------------0---------------------------------|
	A|-----------------|----------------------------------------------------|
	E|-3----3----3---3-|-3--3--3----3---3---3---3---3---3---3---3---3---3---|

	   oliver james washed in the rain, no longer

	e|----------------------------------|
	B|-1r0----0---------------0---------|
	G|------2-----0-------0-------0---0-|
	D|----------------0-----------------|
	A|----------------------------------|
	E|-3----3---3---3---3---3---3---3---|

	e|-----------------|----------------------------------------------------|
	B|-----------------|-1--0-----0-----------3---3---3---1---1---1---0---0-|
	G|-2r0-----0-------|-------2------0-------------------------------------|
	D|------2------2---|------------------0---------------------------------|
	A|-----------------|----------------------------------------------------|
	E|-3----3----3---3-|-3--3--3----3---3---3---3---3---3---3---3---3---3---|

	   oliver james washed in the rain, no longer

	e|------------------------------------|
	B|-1r0----0---------------0-----------|
	G|------2-----0-------0-------0---0---|
	D|----------------0-------------------|
	A|------------------------------------|
	E|-3----3---3---3---3---3---3---3---3-|



b1:	e|----------------------------------------------------------------------|
	B|-------0--1----0-------0---1---0----------0--1----0-------------------|
	G|-2-----------------2----------------2-----------------2---------------|
	D|----------------------------------------------------------3-------3---|
	A|--------------------------------------------------------------3-------|
	E|-1--1--1--1--1---1---1---1---1---1--1--1--1--1--1---1---1---1---1---1-|
	
	  walk with me down ruby beach and through the valley floor

	e|---------------------------------------------------------------|
	B|--------------------0-----------0---0---1---1---3---1---0------|
	G|-0--------------0-------0------------------------------------0-|
	D|----4--2----4---------------4----------------------------------|
	A|-3--3--3--3---3---3---3---3---3--------------------------------|
	E|----------------------------------3---3---3---3---3---3---3--3-|

	  love for the one you know more

	e|----------------------------------------------------------------------|
	B|-------0--1----0-------0---1---0----------0--1----0-------------------|
	G|-2-----------------2----------------2-----------------2---------------|
	D|----------------------------------------------------------3-------3---|
	A|--------------------------------------------------------------3-------|
	E|-1--1--1--1--1---1---1---1---1---1--1--1--1--1--1---1---1---1---1---1-|
	
	  la la la la...

	e|-------------------------------------------------------------------|
	B|--------------------0-----------0---0---1---1---3---1---0----------|
	G|-0--------------0-------0------------------------------------0--*0-|
	D|----4--2----4---------------4--------------------------------------|
	A|-3--3--3--3---3---3---3---3---3------------------------------------|
	E|----------------------------------3---3---3---3---3---3---3----3---|

	  love for the one you know more


	(n.c.)
v3:	*back we go to your brothers house, emptier my dear
	the sound of ancient voices ringing soft upon your ear


	(n.c.)
c3:	oliver james washed in the rain, no longer
	oliver james washed in the rain, no longer


-rigs-
Suggest correction
comments
print report bad tab
2 comments total.
+1 reply
foldedtapestry 73 wrote on July 7 2012, 07:43 pm

Fantastic. Thank you very much.

0 reply
Ace_1973 40 wrote on September 6 2013, 07:38 pm

Great stuff, thanks.

guest
You may want to rate the tab now too:
select rating
Please do not post tabs as comments. Select "correction" instead!