Oops, an error
Loading. Please wait.

Sim Sala Bim Tab

version 2
version 2

Whole song

40,385 views 75 this week
9 commentsread comments
1 2 3 4 5
x 18
add to favorites
launch autoscroll
font size
0
reset
how to read this tab
guitar tuner
Autoscroll
slow
fast
+/-
esc
set tempo
stop
Help us to improve Ultimate-Guitar.com Take our survey!
×
Author
Capo
5th fret
Tuning: CGCGA#C with a capo on the 5th fret.

[Intro riff]
c |------------------------------------|
A#|---7-------4p2p0---2-------2--------|
G |-------0--------0------0-------0----|
C |---0-------0-------0-------0--------| (x4)
G |------------------------------------|
C |------------------------------------|

[Verse]
"He was so kind..."
c |--------------------------------------------------------|
A#|--------------------------------------------------------|
G |------0-----0-----0-----0-----0-----0-----0-----0-------|
C |---------2-----------2-----------2-----------2----------|
G |---0-----------0-----------0-----------0----------------|
C |--------------------------------------------------------|
                                                                          (x2)
c |------------------------------------------------------------------|
A#|---7-------4p2p0---2-------2-------7-------4p2p0---2-------2------|
G |-------0--------0------0-------0-------0--------0------0-------0--|
C |---0-------0-------0-------0-------0-------0-------0-------0------| 
G |------------------------------------------------------------------|
C |------------------------------------------------------------------|

[Chorus]
"Ruffle the fur..."
c |------------------------------------------------------|
A#|------------------------------------------------------|
G |---3-----3-----3-----3-----0-----0-----0-----0--------|
C |------2-----2-----2-----2-----0-----0-----0-----0-----| (x2)
C |---0-----0-----0-----0-----0-----0-----0-----0--------|
G |------------------------------------------------------|

c |------------------------------------------------------|
A#|------------------------------------------------------|
G |---2-----2-----2-----2-----0-----0-----0--------------|
C |------0-----0-----0-----0-----0-----0-----0-----------|
G |---0-----0-----0-----0-----0-----0-----0-----3p2p0----|
C |------------------------------------------------------|

c |------------------------------------|
A#|---7-------4p2p0---2-------2--------|
G |-------0--------0------0-------0----|
C |---0-------0-------0-------0--------| (x4)
G |------------------------------------|
C |------------------------------------|

[Verse 2]
"Then the Earth shook..."
c |---9-------------------------------------------------------|
A#|---7-----------7---4--2--0--2------7---4--2--0--2----------|
G |---7---(x16)-------------------0-------------------0-------|
C |-----------------------------------------------------------| (x2)
G |-----------------------------------------------------------|
C |-----------------------------------------------------------|

[Chorus 2 & 3]
"What makes me love you..."
c |---0----------------------0---------------------|
A#|---0----------------------2---------------------|
G |---3----------------------0---------------------| < Just strum these chords
C |---2----------------------0---------------------|
C |---0----------------------0---------------------|
G |---0----------------------0---------------------|

c |---0--------------------------------------------|
A#|---0-----------------7---4--2--0--2------(x4)---|
G |---2---------------------------------0----------|
C |---0--------------------------------------------|
C |---0--------------------------------------------|
G |---0--------------------------------------------|

[Bridge] 
(quietly)
"Remember when you had me..."
c |-------------------------------------------------------0-----|
A#|-------------------------------------------------------------|
G |---2---2---3---3---5---5---3---3---3---3---0---0---0-----0---|
C |-----0---0---0---0---0---0---2---2---2---2---2---2---0-------|
C |---2---2---3---3---5---5---0---0---0---0---0---0-------------|
G |-------------------------------------------------------------|

c |-------------------------------------------------------------|
A#|-------------------------------------------------------------|
G |---2---2---3---3---5---5---3---3---3---3---0---0-----0~------|
C |-----0---0---0---0---0---0---2---2---2---2---2----2----------|
C |---2---2---3---3---5---5---0---0---0---0---0---0-----0~------|
G |-------------------------------------------------------------|

[Solo]
c |----------------------------------------------------------|
A#|----------------------------------------------------------|
G |----------------------------------------------------------|
C |-----------------------------3-3p2p0----0-----------------|
C |---3-3p2p0------0------(x3)----------h3---2-3-0-----------|
G |-----------h5-4---2-0-------------------------------------|

c |----------------------------------------------------------|
A#|----------------------------------------------------------|
G |----------------------------------------------------------|
C |---3-3p2p0----0-----0-------------------------------------|
C |-----------h3---2-3---------3-3p2p0------0----------------|
G |------------------------------------h5-4---2-0------------|

(Then play this part twice)
c |------------------------7--10--9--7--5/7--5-5--7-7--4-4-------|  
A#|------------------------9--9---9--9--0-0--7-7--9-9--6-6-------|
G |------------------------0--0---0--0--0-0--7-7--9-9--5-5--(x3)-|
C |-0-0-0-0-0-0-0-0--------0--0---0--0--0-0--0-0--0-0--0-0-------|
C |-0-0-2-2-3-3-2-2--(x8)--------------------0-0--0-0--0-0-------|
G |-0-0-0-0-0-0-0-0----------------------------------------------|

c |--5--5--5--5--------------------|
A#|--7--7--7--7--------------------|
G |--5--5--5--5--------------------|
C |--0--0--0--0--0--0-0--0-0--0-0--|
G |--0--0--0--0--2--2-3--3-2--2-0--|
C |--0--0--0--0--0--0-0--0-0--0-0--|

(Then finish)
c |-----------------------------|
A#|-----------------------------|
G |-----------------------------|
C |-----------------------------|
C |---3-3p2p0------0------(x4)--|
G |-----------h5-4---2-0--------|


************************************

| p  Pull-off
| ~  Vibrato
| h  Hammer-on
| /  Slide up

************************************
Suggest correction
comments
print report bad tab
9 comments total. Showing first comments. show 1 bad comment
-1 reply
Autopoietic Boy 365 Jun 28, 2011 08:35 PM

I changed my rating to a three. In all honesty, most of the tab is correct and its uncertain exactly which version is closer to the actual way its played. Maybe look up my tab, try out the peculiar tuning and see how it fares in your opinion. Maybe we could help one another in discerning the authentic rendition.

0 reply
iatethesmiths 138 Jun 29, 2011 07:12 AM

This tab isn't right btw, I've already submitted an updated one. You're right about him picking the 12 fret on the intro but I'm sure he picks it on the B string so I think the tuning is CGCGA#C.

guest
You may want to rate the tab now too:
select rating
Wanna post a correction for this tab? Suggest correction