Oops, an error
Loading. Please wait.

Sun Giant Chords

9,249 views 9 this week
1 commentread comment
1 2 3 4 5
accurate
x 5
add to favorites
launch autoscroll
font size
0
reset
transpose
0
reset
display chords
guitar tuner
Autoscroll
slow
fast
+/-
esc
set tempo
stop
Help us to improve Ultimate-Guitar.com Take our survey!
×
Contributor
Difficulty
novice
                       Fleet Foxes - Sun Giant                          
                      Words and music by Robin Pecknold

                                                  
This is all by ear, feel free to correct anything.

___________________________________________
I put rhythm indicators above the tab.
| is a Quarter note
- is an Eigth note

           D Em    D             Em D     Bm   D    D Em    D    A    Bm   A G
  |  |  |  - -     |    |    |    - -     |    |    - -     |    |    |    - -
E|---------2-0-| |-2----2----2----0-2-| |-2----2----2-0-| |-2----0----2----0-3-|
B|---------3-0-| |-3----3----3----0-3-| |-3----3----3-0-| |-3----2----3----2-3-|
G|---------2-0-| |-2----2----2----0-2-| |-4----2----2-0-| |-2----2----4----2-0-|
D|---------0-2-| |-0----0----0----2-0-| |-4----0----0-2-| |-0----2----4----2-0-|
A|-------------| |--------------------| |-2-------------| |------0----2----0-2-|
E|-------------| |--------------------| |---------------| |--------------------|
         What a   life  I  lead  in the  sum~~mer What a  life   I  lead  in the
 
  |   |   |   _ _     |    |    |    _ _     |    |    |     _ _
|-0-----------2-0-| |-2----0----2----0-0-| |-3----3----3-----2-0-|
|-2-----------3-2-| |-3----2----3----0-0-| |-3----0----0-----3-0-|
|-2-----------4-2-| |-4----2----2----0-0-| |-0----0----0-----2-0-|
|-2-----------4-2-| |-4----2----0----2-2-| |-0----0----0-----0-2-|
|-0-----------2-0-| |-2----0-------------| |-2----2----2---------|
|-----------------| |--------------------| |---------------------|
spring     What a   life   I  lead  in the  win~~ded  breeze what a
 
  |   |   |   _ _     |    |    |    _ _    
|-2---2---0---2-2-| |-2--------------2-0-| 
|-3---3---0---3-3-| |-3--------------2-0-| 
|-2---2---0---2-2-| |-2--------------3-0-| 
|-0---0---2---0-0-| |-0--------------0-2-| 
|-----------------| |--------------------| 
|-----------------| |--------------------|
life  I lead in the  spring        What a

You probably get the point, I'm too lazy to tab it out further.

VERSE 1
D    Em D           Em  D   Bm   D
What a  life I lead in  the sum~~mer 

D    Em D    A Bm   A  G   A
What a  life I lead in the spring

Bm   A Bm   A D    Em     G       
What a life I lead in the winded breeze

D    Em D      Em   D
What a  life I lead in the spring


VERSE 2
D    Em D           Em       D   Bm     D
What a  life I lead when the sun breaks free

D  Em D   A   Bm   A    G   A
As a  gi~~ant torn from the clouds

Bm   A Bm   A   D    Em        G
What a life in~~deed when that ancient seed

D  Em D     Em      D    
Is a  berry watered and plowed


MIDDLE THING(not sure about this part)
D        
What a life

Em       
What a life

A             
What a life
 
G         
What a life


END VERSE
D    Em D           Em  D   Bm   D
What a  life I lead in  the sum~~mer 

D    Em D    A Bm   A  G   A
What a  life I lead in the spring

Bm   A Bm   A D    Em     G       
What a life I lead in the winded breeze

D    Em D      Em   D
What a  life I lead in the spring

comments
print report bad tab
1 comment total.
0 reply
KcazFM 79 wrote on May 6 2015, 09:01 pm

I think the Bm-D on "sum-mer" is actually Bm-A. Other than that, spot on.

I want to post or [tab]
guest
You may want to rate the tab now too:
select rating
Please do not post tabs as comments. Select "correction" instead!