Oops, an error
Loading. Please wait.

Sun It Rises Tab

version 2
version 2

Whole song

7,675 views 1 this week
1 commentread comment
1 2 3 4 5
excellent!
x 3
add to favorites
launch autoscroll
font size
0
reset
how to read this tab
guitar tuner
Tab Pro tools
  • play this tab
  • loop segment
  • change instrument
  • show fretboard
  • metronome
×
Best way to learn
"Sun It Rises"
Autoscroll
slow
fast
+/-
esc
set tempo
stop
Contributor
                        |-----------------|
                        |   SUN IT RISES  |
                        |  by Fleet Foxes |
                        |-----------------|

Tab by Devin Miller

Tuning: Drop D --> DAdGBe

*************************************************
                    INTRO
*************************************************

Guitar 1 (acoustic):             Guitar 2 (acoustic):

e|----0----0----0-|              e|-0--0-0--0-0--0-|
B|----3----3----3-|              B|-3--3-3--3-3--3-|
G|----2----2----2-|              G|-2--2-2--2-2--2-|
d|-----------0----|              d|-0--0-0--0-0--0-|
A|------0---------|              A|----------------|
D|-0--------------| repeat       D|----------------| repeat


Guitar 3 (acoustic solo):

e|-------------|-------------|---------------|------------|
B|-------------|-------------|-----7---------|-10---------|
G|-7h9--9------|-9p7--7------|-7h9-------7---|------------|
d|-------------|-------------|-------9-------|------------|
A|-------------|-------------|---------------|------------|
D|-------------|-------------|---------------|------------|
       
e|-------------|-------------|---------------|------------|
B|-------------|-------------|-----7---------|------------|
G|-7h9--9------|-9p7--7------|-7h9-----------|-7----------|
d|-------------|-------------|-------9---7---|------------|
A|-------------|-------------|---------------|------------|
D|-------------|-------------|---------------|------------|
       
e|-------------|-------------|---------------|------------|
B|-------------|-------------|-----7---------|-10---------|
G|-7h9--9------|-9p7--7------|-7h9-------7---|------------|
d|-------------|-------------|-------9-------|------------|
A|-------------|-------------|---------------|------------|
D|-------------|-------------|---------------|------------|
        
e|-------------|-------------|---------------|------------|
B|-----7-------|-------------|-----7---------|------------|
G|-7h9---9-----|-9p7--7------|-7h9-----------|-7----------|
d|-------------|-------------|-------9---7---|------------|
A|-------------|-------------|---------------|------------|
D|-------------|-------------|---------------|------------|


*************************************************
                    VERSE
*************************************************


CHORD REFERENCE:

(The chord names are not completely correct, they're just simplified
 to make it less complicated)

    D     F     G    Am    Bm    D7M
e|--0-----3-----5-----5-----7-----9------|
B|--3-----1-----3-----5-----7-----7------|
G|--2-----2-----4-----5-----7-----7------|
d|--0-----0-----0-----0-----0-----0------|
A|---------------------------------------|
D|---------------------------------------|

    F          G
The sun rises, over my head

Am                     D        
In the morning, when I rest.


Guitar 3 (acoustic):
   
e|-------------|-------------|---------------|------------|
B|-------------|-------------|-----7---------|------------|
G|-7h9--9------|-9p7--7------|-7h9-----------|-7----------|
d|-------------|-------------|-------9---7---|------------|
A|-------------|-------------|---------------|------------|
D|-------------|-------------|---------------|------------|

Banjo (arranged for guitar):

e|-5---3---2---|-3---2---0---|-0-2-3-2---0---|----------------|
B|-------------|-------------|---------------|-3--------------|
G|-------------|-------------|---------------|----------------|
d|-------------|-------------|---------------|----------------|
A|-------------|-------------|---------------|----------------|
D|-------------|-------------|---------------|----------------|


F             G
Hold me dear, into the night

Am                         D7M       Bm       D7M
Sun, it will rise, soon enough.


*************************************************
                  GUITAR SOLO
*************************************************


Rhythm guitars 1 & 2 play D.


Guitar 3 (acoustic w/distortion):

       
e|-------------|-------------|---------------|------------|
B|-------------|-------------|-----7---------|-10---------|
G|-7h9--9------|-9p7--7------|-7h9-------7---|------------|
d|-------------|-------------|-------9-------|------------|
A|-------------|-------------|---------------|------------|
D|-------------|-------------|---------------|------------|

         
e|--------------|-------------|---------------|------------|
B|-----7--------|-------------|-----7---------|------------|
G|-7h9---9------|-9h11-9-7----|-7h9-----------|-7----------|
d|--------------|-------------|-------9---7---|------------|
A|--------------|-------------|---------------|------------|
D|--------------|-------------|---------------|------------|

Time signature changes to 12/8

 
e|-----------------------|
B|-----7-----------------|
G|-7h9---9-7---7-----7---|
d|-----------9---9-7-----|
A|-----------------------|
D|-----------------------| x4

e|---------------------------|
B|---------------------------|
G|---------------------------|
d|-----7-10-7-7-10-7-7-/12---|
A|-7h9-----------------------|
D|---------------------------| x4
   
e|-------------|--------------------|
B|-------------|--------------------|
G|-------9-----|-7-----9-7----------|
d|-7-----------|-----------10---9---|
A|-------------|--------------------|
D|-------------|--------------------| x1
 
e|-------------|--------------------|-------------------|
B|-------------|--------------------|-------------------|
G|-------9-----|-7-----9-7----------|-------------------|
d|-7-----------|-----------10---9/--|-12----------------|
A|-------------|--------------------|-------------------|
D|-------------|--------------------|-------------------| x1


*************************************************
                    OUTRO
*************************************************

Time signature stays in 12/8
               
e|---------------------|               |------------------------|
B|---------------------|               |------------------------|
G|-9-------------------|               |-11---------------------|
d|-----10--9s7--9--10--|               |------12--11s9--11--12--|
A|---------------------|               |------------------------|
D|---------------------| x2, then -->  |------------------------| x2


================================================================

Tablature Legend
----------------
h - hammer on
p - pull off
s - slide to
/ - slide

================================================================
comments
We did not receive enough feedback on this tab! Please rate:
print report bad tab
1 2 3 4 5
1 comment total.
0 reply
stevenwhaley327 wrote on August 9 2014, 05:26 pm

for what it's worth, possible chord names: Dsus2 Fadd9/D Gadd9/D Am/D Bm/D Dmaj7

I want to post or [tab]
guest
You may want to rate the tab now too:
select rating
Please do not post tabs as comments. Select "correction" instead!