Oops, an error
Loading. Please wait.

The Cascades Tab

version 1
version 1

Whole song

Interactive

23,335 views 21 this week
4 commentsread comments
1 2 3 4 5
excellent!
x 18
add to favorites
launch autoscroll
font size
0
reset
how to read this tab
guitar tuner
Autoscroll
slow
fast
+/-
esc
set tempo
stop
Help us to improve Ultimate-Guitar.com Take our survey!
×
Author
Song: THE CASCADES
Artist: Fleet Foxes
Album: "Helplessness Blues" [2011]

Tab by Devin Miller

****************************************************************

Rhythm: 6-string, steel
Tuning: Open D6 (DADF#Bd)
Capo: none

Solo instruments: Nylon acoustic + Mandolin + 6-string steel
Tuning: Standard EADGBe (GDAe for Mandolin)
Capo: none

****************************************************************

INTRO

e|---7--7--7--7-|---7--7--7--7-|---7--7--7--7-|---7--7--7--7-|
B|--7--7--7--7--|--7--7--7--7--|--7--7--7--7--|--7--7--7--7--|
G|-7--7--7--7---|-7--7--7--7---|-7--7--7--7---|-7--7--7--7---|
D|--------------|--------------|--------------|--------------|
A|--------------|--------------|--------------|--------------|
E|--------------|--------------|--------------|--------------|

MAIN THEME

e|---7--7--7--7-|---7--7--7--7-|---9--9--9--9-|---9--9--9--9-|
B|--7--7--7--7--|--7--7--7--7--|--7--7--7--7--|--7--7--7--7--|
G|-7--7--7--7---|-7--7--7--7---|-9--9--9--9---|-9--9--9--9---|
D|--------------|--------------|--------------|--------------|
A|--------------|--------------|--------------|--------------|
E|--------------|--------------|--------------|--------------|

e|---7--7--7--7-|---7--7--7--7-|---9--9--9--9-|---9--9--9--9-|
B|--7--7--7--7--|--7--7--7--7--|--7--7--7--7--|--7--7--7--7--|
G|-7--7--7--7---|-7--7--7--7---|-9--9--9--9---|-9--9--9--9---|
D|--------------|--------------|--------------|--------------|
A|--------------|--------------|--------------|--------------|
E|--------------|--------------|--------------|--------------|

e|---5--5--5--5-|---7--7--5--5-|---3--3--3--3-|---5--5--5--5-|
B|--5--5--5--5--|--5--5--3--3--|--3--3--3--3--|--3--3--3--3--|
G|-5--5--5--5---|-7--7--5--5---|-3--3--3--3---|-5--5--5--5---|
D|--------------|--------------|--------------|--------------|
A|--------------|--------------|--------------|--------------|
E|--------------|--------------|--------------|--------------|

e|---4--4--4--4-|---4--4--4--4-|---4--4--4--4-|---4--4--4--4-|
B|--2--2--2--2--|--2--2--2--2--|--2--2--2--2--|--2--2--2--2--|
G|-4--4--4--4---|----4-----4---|--------------|----4---------|
D|--------------|-0------------|----0---------|-0--------0---|
A|--------------|-------4------|-------4------|-------4------|
E|--------------|--------------|-4--------4---|--------------|

Solo guitar:


      
E|--5----4---5----9--7---5-|--7-----------4--|--5----4---5-4h5----------|
B|-------------------------|-------7---------|-----------------5--7---9-|
G|-------------6-----------|-----------------|--------------------------|
D|-------------------------|-----------------|--------------------------|
A|-------------------------|-----------------|--------------------------|
E|-------------------------|-----------------|--------------------------|
                
-------------------|
--7----------------|
-------------------|
-------------------|
-------------------|
-------------------|

  
--0----2--3--2--5--3--2--|--5------------------|---------------------|
-------------------------|------------3--------|--2--------3----2----|
-------------------------|-------5-------------|---------------------|
-------------------------|---------------------|---------------------|
-------------------------|---------------------|---------------------|
-------------------------|---------------------|---------------------|

-------------------------|
-----3--2-----3----2-----|
-------------------------|
--4--------4-------------|
-------------------------|
-------------------------|

****************************************************************

MANDOLIN ENTERS

Rhythm guitar line:

e|---2--2--4--4-|---6--6--2--6-|---4--2--6--4-|---4--4--2--2-|
B|--0--0--0--0--|--0--0--0--0--|--0--0--0--0--|--0--0--0--0--|
G|-2--2--3--3---|-5--5--2--5---|-3--2--5--3---|-3--3--2--2---|
D|--------------|--------------|--------------|--------------|
A|--------------|--------------|--------------|--------------|
E|--------------|--------------|--------------|--------------|

e|---0--0--4--4-|---4--4--0--4-|---4--4--4--4-|---2--2--2--2-|
B|--0--0--0--0--|--0--0--0--0--|--0--0--0--0--|--0--0--0--0--|
G|-0--0--3--3---|-3--3--0--3---|-3--3--3--3---|-2--2--2--2---|
D|--------------|--------------|--------------|--------------|
A|--------------|--------------|--------------|--------------|
E|--------------|--------------|--------------|--------------|

    Repeat last 2 bars


e|---2--2--2--2-|---2--2--2--2-|---2--2--2--2-|---2--2--2--0-|
B|--0--0--0--0--|--0--0--0--0--|--0--0--0--0--|--0--0--0--0--|
G|----2--2--2---|-2--2--2--2---|----2--2--2---|-2--2--2--0---|
D|--------------|--------------|--------------|--------------|
A|--------------|--------------|--------------|--------------|
E|-2------------|--------------|-2------------|--------------|


MANDOLIN and SOLO GUITAR in SYNC:

    
e|--7----9----12----7--12--|--9--7--12--9--9----7---|--5----9----9----5--9-|
B|-------------------------|------------------------|----------------------|
G|-------------------------|------------------------|----------------------|
D|-------------------------|------------------------|----------------------|
A|-------------------------|------------------------|----------------------|
E|-------------------------|------------------------|----------------------|
 |                         |                        |                      |
e|-------------------------|------------------------|----------------------|
A|-------------------------|------------------------|----------------------|
D|--6----7----9-----6---9--|--7--6---9--7--7----6---|--4----7----7----4--7-|
G|-------------------------|------------------------|----------------------|
   
--9----9----7--------|--7----9----12----7--12--|
---------------------|-------------------------|
---------------------|-------------------------|
---------------------|-------------------------|
---------------------|-------------------------|
---------------------|-------------------------|
                     |                         |
---------------------|-------------------------|
---------------------|-------------------------|
--7----7----6--------|--6----7-----9----6---9--|
---------------------|-------------------------| repeat last 5 bars
       

solo guitar on it's own, right before climax:

--7----12--------7---5-|--4----10------------|
-----------------------|---------------------|
-----------------------|---------------------|
-----------------------|---------------------|
-----------------------|---------------------|
-----------------------|---------------------|

****************************************************************


CLIMAX (put more emphasis on the thumb notes)

e|---0---0---0---0-|---0---0---0---0-|---3---3---3---3---3---3---3---3-|
B|-----3-------3---|-----6-----------|-----3-------3-------3-------3---|
G|---------3-------|-6-------8---10--|-3---------------3-------3-------|
D|-0---------------|-----------------|---------0-----------------------|
A|-----------------|-----------------|---------------------------------|
E|-----------------|-----------------|---------------------------------|

e|---5---5---5---5-|---3---3---3---3-|
B|-----3-------3---|-----3-------3---|
G|-5-------5-------|-3-------3-------|
D|-----------------|-----------------|
A|-----------------|-----------------|
E|-----------------|-----------------| x2


Repeat once.

MANDOLIN LINES:
    
e|----------------------------|-------------------|
A|----------------------------|-------------------|
D|--3----2---3-2h3p2-0--0--2--|--0----------------|
G|----------------------------|-------------------|
        
-----------------------0--|----------------------|
--2----3---2-3p2----0-----|--5------3-2-0--------|
-----------------5--------|----------------------|
--------------------------|----------------------| repeat last 4 bars

SOLO ACOUSTIC enters halfway through:
      
e|---------------------------|------------------------|-------------------|
B|---------------------------|------------------3--5--|-------------------|
G|-5----4---2-4p2p0-------2--|--0----4--5-------------|--4--------2-------|
D|------------------0--3-----|-------------0----------|-------------------|
A|---------------------------|------------------------|-------------------|
E|---------------------------|------------------------|-------------------|

****************************************************************

SOFTER PART

e|-----------|
B|-1-----1---|
G|-----1---1-|
D|----2---2--|
A|-3----3----|
E|-----------| x4

e|-0-----0---|
B|-----------|
G|-----1---1-|
D|----4---4--|
A|-2---------|
E|------2----| x4

e|-----------|
B|-1-----1---|
G|-----1---1-|
D|----2---2--|
A|-3----3----|
E|-----------| x4

e|-----------|
B|-------0---|
G|-----5-----|
D|----0----0-|
A|-----------|
E|-5----5----| x8


ACOUSTIC AND MANDOLIN LINES:

e|-3----3----3----3----|--3----3----3----3----|--2----2----2----2----|
B|-1----1----1----1----|--1----1----1----1----|--3----3----3----3----|
G|---------------------|----------------------|----------------------|
D|---------------------|----------------------|----------------------|
A|-3----3----3----3----|--3----3----3----3----|--2----2----2----2----|
E|---------------------|----------------------|----------------------|
 |                     |                      |                      |
e|---------------------|----------------------|----------------------|
A|---------------------|----------------------|----------------------|
D|-2----2----2----2----|--2----2----2----2----|--0----0----0----0----|
G|-5----5----5----5----|--5----5----5----5----|--4----4----4----4----|

--2----2----2----2----|--3----2---3-5----3---5-|--7----5---7-8----7---5-|
--3----3----3----3----|------------------------|------------------------|
----------------------|------------------------|------------------------|
----------------------|------------------------|------------------------|
--2----2----2----2----|------------------------|------------------------|
----------------------|------------------------|------------------------|
                      |                        |                        |
----------------------|------------------------|------------------------|
----------------------|------------------------|------------------------|
--0----0----0----0----|--2----2----0-----0-----|--2----2----4-----4-----|
--4----4----4----4----|------------------------|------------------------|
   
--7-------7-------------|--------------|---------------------|-----------|
-------8----------------|--------------|--3--------2---------|-----------|
------------------------|--------------|----------------4----|-4---------|
------------------------|--------------|---------------------|-----------|
------------------------|--------------|---------------------|-----------|
------------------------|--------------|---------------------|-----------|
                        |
------------------------|
-----------------2-2-2-2|
--5-------5-------------|
------------------------|

 (tremolo picking)
----------------------------------|----------------------------------|
--2-2-2-2-2-2-2-2-2-2-2-2-2-2-2-2-|--2-2-2-2-2-2-2-2-0-0-0-0-0-0-0-0-|
----------------------------------|----------------------------------|
----------------------------------|----------------------------------|
               
----------------------------------|
--0-0-0-0-0-0-0-0-0-0-0-0-0-0-0-0-|
--4-4-4-4-4-4-4-4-4-4-4-4-4-4-4-4-|
----------------------------------|

****************************************************************

OUTRO

1. Repeat the intro

2. 6 and 12-strings in sync:

                     
e|-5----4---5----9--7---5-|--7-----------------4-|
B|------------------------|-------7--------------|
G|------------6-----------|----------------------|
D|------------------------|----------------------|
A|------------------------|----------------------|
E|------------------------|----------------------|
              12-string:  |                      |
                         e|----------------------|
                         B|----------------------|
                         G|--------------------4-|
                         D|----------------------|
                         A|----------------------|
                         E|----------------------|

   
-5----4--5--4h5---------|--------------|-0---2-3-2-5--3-2-|
----------------5-7---9-|-7------------|------------------|
------------------------|--------------|------------------|
------------------------|--------------|------------------|
------------------------|--------------|------------------|
------------------------|--------------|------------------|
                        |              |                  |
------------------------|--------------|------------------|
------------------------|--------------|------------------|
-6----4--6-4h6p4--4---6-|-4------------|------------------|
----------------4-------|--------------|-5---7-9-7-11-9-7-|
------------------------|--------------|------------------|
------------------------|--------------|------------------|
                  
-5----------------|-----------------|
----------3-------|-2---------------|
------5-----------|-----------------|
------------------|-----------------|
------------------|-----------------|
------------------|-----------------|
                  |                 |
------------------|-----------------|
------------------|-----------------|
------------------|-----------------|
-12---7---9-------|-8---------------|
------------------|-----------------|
------------------|-----------------|


************************************

| /   slide up
| \   slide down
| h   hammer-on
| p   pull-off
| ~   vibrato
| +   harmonic
| x   Mute note
| b   Bend
| pb  Pre-bend
| br  Bend release
| pbr Pre-bend release
| brb Bend release bend

************************************
Suggest correction
What's this?
You can suggest a correction to this tab. Community and Mods will review your correction and vote to approve or reject it.
comments
print report bad tab
4 comments total. Showing first comments.
0 reply
Ibanez2427 510 wrote on June 11 2011, 02:21 am

This is ****ing perfect, well done. Thank you.

0 reply
jbrain95 118 wrote on June 12 2011, 07:02 pm

Brilliant! Not a single mistake.

0 reply
Travmann777 130 wrote on June 13 2011, 12:40 am

perfect! just a little confusion on tuning, but nothing really

guest
You may want to rate the tab now too:
select rating
Please do not post tabs as comments. Select "correction" instead!