Oops, an error
Loading. Please wait.

White Winter Hymnal Tab

version 1
version 1

Whole song

Interactive

217,818 views 69 this week
7 commentsread comments
1 2 3 4 5
x 14
add to favorites
launch autoscroll
font size
0
reset
how to read this tab
guitar tuner
×
Best way to learn
"White Winter Hymnal"
Autoscroll
slow
fast
+/-
esc
set tempo
stop
Author
Tabbers playing skills
  follow
intermediate ++
Tabbed by: Les Gibson
Tuning: Standard

[Verse]
E
I was following the pack all swallowed in their coats
                                     F#m
with scarves of red tied round their throats 
to keep their little heads from fallin’ in the snow
                                  A
And I turned ’round and there you go
And, Michael, you would fall
              B                    A
and turn the white snow red as strawberries
         E
in the summertime.

[Break]
  E                           A
e|---------------------------|---------------------------|
B|---------------------------|---------------------------|
G|------------------4--------|---------------------------|
D|----------4-6-------6--4---|--4--6-------4-----4-------|
A|---4-6h7------4-7--------7-|-----------------7---7--4--|
E|---------------------------|---------------------------|

  F#m                         E
e|---------------------------|---------------------------|
B|---------------------------|---------------------------|
G|---------------------------|---------------------------|
D|---------------------2-----|---------------------------|
A|-(4)-----------4-2-4---4-2-|----2--4/6--4--------------|
E|---------------------------|--4------------------------|


[Verse]
E
I was following the pack all swallowed in their coats
                                     F#m
with scarves of red tied round their throats 
to keep their little heads from fallin’ in the snow
                                  A
And I turned ’round and there you go
And, Michael, you would fall
              B                    A
and turn the white snow red as strawberries

[Break](x2)
  E                           A
e|---------------------------|---------------------------|
B|---------------------------|---------------------------|
G|------------------4--------|---------------------------|
D|----------4-6-------6--4---|--4--6-------4-----4-------|
A|---4-6h7------4-7--------7-|-----------------7---7--4--|
E|---------------------------|---------------------------|

  F#m                         E
e|---------------------------|---------------------------|
B|---------------------------|---------------------------|
G|---------------------------|---------------------------|
D|---------------------2-----|---------------------------|
A|-(4)-----------4-2-4---4-2-|----2--4/6--4--------------|
E|---------------------------|--4------------------------|

(Added few measures)
e|---------------------------|---------------------------|
B|---------------------------|---------------------------|
G|---------------------------|---------------------------|
D|---7---9---11---13---11-9--|--4--4/6-6----4-6-4--------|
A|---------------------------|--------------------7-4-2--|
E|---------------------------|---------------------------|

[Verse]
E
I was following the pack all swallowed in their coats
                                     F#m
with scarves of red tied round their throats 
to keep their little heads from fallin’ in the snow
                                  A
And I turned ’round and there you go
And, Michael, you would fall
              B                    A
and turn the white snow red as strawberries
         E
in the summertime.
Suggest correction
comments
print report bad tab
7 comments total. Showing first comments.
0 reply
Midnight Barber 72 Sep 08, 2008 06:32 AM

Very nice lead part if every part in the E chord bit is moved down a string

0 reply
Les Gibson 498 Nov 16, 2008 02:53 AM

sorted

0 reply
bluespike 10 Feb 11, 2009 12:28 PM

great post of this tune.thanks for the effort that you took to pass it on to your fellow dudes and dudettes.love and peace

guest
You may want to rate the tab now too:
select rating
Wanna post a correction for this tab? Suggest correction