Oops, an error
Loading. Please wait.

Big Love Tab

version 1
version 1

Whole song

Interactive

90,723 views 39 this week
10 commentsread comments
1 2 3 4 5
x 25
add to favorites
launch autoscroll
font size
0
reset
how to read this tab
guitar tuner
Autoscroll
slow
fast
+/-
esc
set tempo
stop
Help us to improve Ultimate-Guitar.com Take our survey!
×
Capo
3rd fret
The Verse is totally correct.  In the first version, the whole song
was a full octave to high. Thanks Darryl for reminding me about the
movie.  It took a little bit of time, but i got it almost totally
right.  I am not too sure about the bass part of the solo.
This version is a lot harder!

Tab inrelavance to the capo on 3th fret.


[Verse]

e|------------------|------------------|--------------------|
B|------------------|------------------|--------------------|
G|--------2---------|---------2--------|--------------------|
D|--0--2------------|--0--2------------|--2-----------------|
A|--0----0----0----0|--0----0----0----0|---------2----------|
E|------------------|------------------|--3----3----3----3--|

e|------------------|------------------|--------------------|
B|------------------|------------------|--------------------|
G|------------------|------------------|--------------------|
D|--2---------------|--------2---------|---------2----------|
A|---------2--------|--0--2------------|--0--2--------------|
E|--3----3----3----3|--1----1----1----1|--1----1----1----1--|

e|------------------|--------------------|
B|------------------|--------------------|
G|------------------|--------------------|
D|--2---------------|--2-----------------|
A|---------2--------|---------2----------|
E|--0----0----0----0|--0----0----0----0--|


[Chorus]

e|------------------|--------------------|
B|------------------|--------------------|
G|------------------|--------------------|
D|--0------3--------|---------2----------|
A|-----3------------|--0--2--------------|
E|--1----1----1----1|--1----1----1----1--|

e|------------------|------------0-----|--1--0--------------|
B|-----------------0|--1----3----------|---------3-----1-0--|
G|--2---------------|------------------|--------------------|
D|---------2--------|------------------|--0----0----0----0--|
A|--0----0----0----0|--0----0----0----0|--------------------|
E|------------------|------------------|--------------------|

e|--1--0------------|------------------|--------------------|
B|---------3-----1-0|------------------|--------------------|
G|------------------|--2------2-------0|--2-----------------|
D|--0----0----0----0|------------------|--------------------|
A|------------------|--0----0----0----0|--0----0----0----0--|
E|------------------|------------------|--------------------|

e|------------------|------------------|--------------------|
B|------------------|------------------|-----------------0--|
G|------------------|------------------|--2-------2---------|
D|--0------3--------|---------2--------|--------------------|
A|-----3------------|--0--2------------|--0----0----0----0--|
E|--1----1----1----1|--1----1----1----1|--------------------|

e|-----------------0|------------------|--------------------|
B|-----1------3-----|-------3---------1|----0-------1----0--|
G|------------------|------------------|--------------------|
D|------------------|--0----0----0----0|--0----0----0----0--|
A|--0----0----0----0|------------------|--------------------|
E|------------------|------------------|--------------------|

e|------------------|--------------------|
B|------------------|--------------------|
G|--2------2-------0|--2-----------------|
D|------------------|--------------------|
A|--0----0----0----0|--0----0----0----0--|
E|------------------|--------------------|


[Solo]

e|--8------5-------8|-----5------8----5|--8-------5------8--|
B|------------------|------------------|--------------------|
G|------------------|------------------|--------------------|
D|------------------|--0----0----0----0|--------------------|
A|--0----0----0----0|------------------|--0----0----0----0--|
E|------------------|------------------|--------------------|

e|-----5------8----5|--8-------5------8|-----8------8----8--|
B|------------------|------------------|--------------------|
G|------------------|------------------|--------------------|
D|--0----0----0----0|------------------|--0----0----0----0--|
A|------------------|--0----0----0----0|--------------------|
E|------------------|------------------|--------------------|

e|--5-------5-------|--5---------------|--------------------|
B|-----------------8|------------------|---------0-------1--|
G|------------------|------------------|--2-----------------|
D|------------------|--0----0----0----0|--------------------|
A|--0----0----0----0|------------------|--0----0----0----0--|
E|------------------|------------------|--------------------|

e|------------------|--0-------1------3|-----1------0-------|
B|-----0------1----3|------------------|-----------------1--|
G|------------------|------------------|--------------------|
D|--0----0----0----0|------------------|--0----0----0----0--|
A|------------------|--0----0----0----0|--------------------|
E|------------------|------------------|--------------------|

e|---------0--------|------------------|--------------------|
B|--3--------------3|-----1------1----0|--------------------|
G|------------------|------------------|--2-------2------0--|
D|------------------|--0----0----0----0|--------------------|
A|--0----0----0----0|------------------|--0----0----0----0--|
E|------------------|------------------|--------------------|

e|--------------------|
B|--------------------|
G|--2-----------------|
D|--0----0----0----0--|
A|--------------------|
E|--------------------|


Lyrics:


[Verse 1]
(Play "Verse")

You're looking out for love
In the night so still
Oh, I'll build you a kingdom on that house on the hill

[Chorus]
(Play "Chorus")

Lookin' out for loooove
Big, big love

[Verse 2]
(Play "Verse")

You said that you loved me
And that you always will
Oh you begged me to keep ya' in that house on the hill

[Chorus]
(Play "Chorus")

Lookin' out for loooove
Big, big love
Suggest correction
comments
print report bad tab
10 comments total. Showing first comments.
+1 reply
grungeragdoll 0 Mar 11, 2002 12:00 AM

.....wow how did you tab this shit

+1 reply
hoppusrlz 10 Sep 01, 2002 12:00 AM

this is such a great tab, you must have watched The Dance like 20 times to get it right. Good Job

+1 reply
canned_peas 16 Dec 05, 2005 03:45 PM

My god. Good job. rated it a *****

guest
You may want to rate the tab now too:
select rating
Wanna post a correction for this tab? Suggest correction