Oops, an error
Loading. Please wait.

Black Magic Woman Tab

version 2
version 2

Whole song

Interactive

34,349 views 90 this week
8 commentsread comments
1 2 3 4 5
x 16
add to favorites
launch autoscroll
font size
0
reset
how to read this tab
guitar tuner
Autoscroll
slow
fast
+/-
esc
set tempo
stop
Help us to improve Ultimate-Guitar.com Take our survey!
×
Author
Difficulty
intermediate
Fleetwood Mac - Black Magic Woman                                 
Album - Pious Bird Of Good Omen
TAB - clear and blue

This is the text version of my Guitar Pro file for those of you who don't have
Guitar Pro. If you can find any improvements great, either let me know or post
up an updated version yourself. should be mostly there and im pretty certain the
solo is accurate - hard part is getting the timing and feel right.


Lead Guitar

      ^                                                          
      W                    W                   W                 
e|--17-----------------|--L----------------|-------------------|
B|--18~----------------|--L----------------|-------------------|
G|--19-----------------|--L----------------|-------------------|
D|---------------------|-------------------|-------------------|
A|---------------------|-------------------|-------------------|
E|---------------------|-------------------|-------------------|

     E    E   E      E   E   E   Q       W                   W                 
e|------------------------------------|-------------------|-------------------|
B|------------------------------------|-------------------|-------------------|
G|------------------------------------|-------------------|-------------------|
D|-----------10--10g12--10------------|-------------------|-------------------|
A|--10S--12-----------------10S--8----|-------------------|-------------------|
E|------------------------------------|-------------------|-------------------|

    W                   W                   W                   W                 
e|-------------------|-------------------|-------------------|-------------------|
B|-------------------|-------------------|-------------------|-------------------|
G|-------------------|-------------------|-------------------|-------------------|
D|-------------------|-------------------|-------------------|-------------------|
A|-------------------|-------------------|-------------------|-------------------|
E|-------------------|-------------------|-------------------|-------------------|

     E      Q        E   H            W                   W                 
e|---------------------------------|-------------------|-------------------|
B|---------------------------------|-------------------|-------------------|
G|--10--10g12pbr----10--12~--------|-------------------|-------------------|
D|---------------------------------|-------------------|-------------------|
A|---------------------------------|-------------------|-------------------|
E|---------------------------------|-------------------|-------------------|

                         ^                                      
    W                    W                    W                 
e|-------------------|--17-----------------|-------------------|
B|-------------------|--18~----------------|-------------------|
G|-------------------|--19-----------------|-------------------|
D|-------------------|---------------------|-------------------|
A|-------------------|---------------------|-------------------|
E|-------------------|---------------------|-------------------|

     S   S  E   S   S E   Q    Q           W                    W                 
e|----------------------------------|------------------------|-------------------|
B|----------------------------------|------------------------|-------------------|
G|----------------------------------|------------------------|-------------------|
D|---------10-----------------------|--10g12~----------------|-------------------|
A|--10S-12-----12S-10-8--10----8----|------------------------|-------------------|
E|----------------------------------|------------------------|-------------------|

                                     ^                                          
     S. E   S. E   E   Q.      S     W                       W                  
e|-------------------------------|--10----------------|------------------------|
B|-------------------------------|--10----------------|--10g13~----------------|
G|-------------------------------|--10----------------|------------------------|
D|---------10-12-----------------|--------------------|------------------------|
A|--10-12---------10--12~--------|--------------------|------------------------|
E|-------------------------------|--------------------|------------------------|

        E   E   E   H         E     W                   W                 
e|-------------10--13~-----------|-------------------|-------------------|
B|---------11--------------------|-------------------|-------------------|
G|--10g12------------------------|-------------------|-------------------|
D|-------------------------------|-------------------|-------------------|
A|-------------------------------|-------------------|-------------------|
E|-------------------------------|-------------------|-------------------|

    W                   W                   W                 
e|-------------------|-------------------|-------------------|
B|-------------------|-------------------|-------------------|
G|-------------------|-------------------|-------------------|
D|-------------------|-------------------|-------------------|
A|-------------------|-------------------|-------------------|
E|-------------------|-------------------|-------------------|

     E   E   E   E   E   E   E   E      W                 
e|--10------10------------------10~--|--L----------------|
B|------10------10--13--10--13-------|-------------------|
G|-----------------------------------|-------------------|
D|-----------------------------------|-------------------|
A|-----------------------------------|-------------------|
E|-----------------------------------|-------------------|

     E   E.    E   E.   Q     E      S  S  Q.      H           W                 
e|------15b---15--13---------13--|--------------------------|-------------------|
B|--15-----------------15--------|--15-13-------------------|-------------------|
G|-------------------------------|--------14~---------------|-------------------|
D|-------------------------------|--------------------------|-------------------|
A|-------------------------------|--------------------------|-------------------|
E|-------------------------------|--------------------------|-------------------|

     Q.       Q      Q      E      E   E   S S  Q.       E   E   
e|--13b------13b----13~----10--|----------10---10~--------------|
B|-----------------------------|--10--13----------------13--10--|
G|-----------------------------|--------------------------------|
D|-----------------------------|--------------------------------|
A|-----------------------------|--------------------------------|
E|-----------------------------|--------------------------------|

     Q        E   S  S  E   E   E    E       E   E      E   Q     E    Q      
e|---------------------------------------|----------10g13--13----13b--13~----|
B|---------------------------------------|------11---------------------------|
G|--12pbr----12--10-12-10------10~--12~--|--12-------------------------------|
D|-------------------------12------------|-----------------------------------|
A|---------------------------------------|-----------------------------------|
E|---------------------------------------|-----------------------------------|

     S  S  E    E   E   Q      E    E       Q      E   E   E.    S  S  E   S  
e|--10----------------------------------|--10~-------------------------------|
B|-----10---------------------10~--13~--|---------13--10------------------10-|
G|--------12~--10------12b--------------|-----------------12b---12-10-12-----|
D|-----------------12-------------------|------------------------------------|
A|--------------------------------------|------------------------------------|
E|--------------------------------------|------------------------------------|

     Q     E   E  Q        E  E      H         H           W                 
e|-------------------------------|----------------------|-------------------|
B|-------------------------------|----------------------|-------------------|
G|--10----12--10-----------------|----------------------|-------------------|
D|-------------------------------|----------------------|-------------------|
A|---------------------12g10--8--|----------------------|-------------------|
E|-------------------------------|--10~-----------------|-------------------|

     W                     E   Q     E      S  Q.      S  
e|--15b----------------|------------13--13g15-13~--------|
B|---------------------|--15--15-------------------------|
G|---------------------|---------------------------------|
D|---------------------|---------------------------------|
A|---------------------|---------------------------------|
E|---------------------|---------------------------------|

     E   H          Q     E      E   E   S  S  E   E   S  S  Q      
e|------15b--------15----13--|------13-----------------------------|
B|--15-----------------------|--15------15-13-----13---------------|
G|---------------------------|----------------14------14-12-14~----|
D|---------------------------|-------------------------------------|
A|---------------------------|-------------------------------------|
E|---------------------------|-------------------------------------|

    E   E   E   E   E      E   Q         E   E   Q       Q      E    E   
e|-----------------13----------------|----------------------------------|
B|---------13--15------15g13--15~----|--13--10----------------------10--|
G|-----14----------------------------|----------12br----10~----12b------|
D|-----------------------------------|----------------------------------|
A|-----------------------------------|----------------------------------|
E|-----------------------------------|----------------------------------|

     E   E   E   Q       Q     E      E   E   H          E   E   
e|--10----------------------------|-----------------------------|
B|------13--10--------------------|-----------------------------|
G|--------------12br----10----10--|------10--12~--------10--12--|
D|--------------------------------|--12-------------------------|
A|--------------------------------|-----------------------------|
E|--------------------------------|-----------------------------|

     E   Q        E   H             Q      Q      E   E   Q      
e|------------------------------|--13b----13~------------10~----|
B|--10--------------------------|----------------10--13---------|
G|------10----12g10-------------|-------------------------------|
D|-------------------12~--------|-------------------------------|
A|------------------------------|-------------------------------|
E|------------------------------|-------------------------------|

     S  E   E.     E   S  S  E   Q        W                    W                  
e|-------------------------------------|-------------------|--17-----------------|
B|--13-10----------------10------------|-------------------|--18~----------------|
G|---------12br---10--10----10---------|-------------------|--19-----------------|
D|------------------------------12~----|-------------------|---------------------|
A|-------------------------------------|-------------------|---------------------|
E|-------------------------------------|-------------------|---------------------|

    W                    S  S  E    S  S  E   H            W                 
e|-------------------|----------------------------------|-------------------|
B|-------------------|----------------------------------|-------------------|
G|-------------------|----------------------------------|-------------------|
D|-------------------|--------10~-----------------------|-------------------|
A|-------------------|--10-12------12-10----------------|-------------------|
E|-------------------|-------------------13--10~--------|-------------------|

     E   Q      E   E   E   Q        W                    H            H          
e|--------------------------------|-------------------|--10----------------------|
B|--------------------------------|-------------------|--10--------10g13~--------|
G|--------------------------------|-------------------|--10----------------------|
D|-----------------10--12---------|-------------------|--12----------------------|
A|--10--12~----12----------12~----|-------------------|--------------------------|
E|--------------------------------|-------------------|--------------------------|

    W                   H         Q      Q         E   E   Q      E   E   Q      
e|-------------------|-----------13b----13~----|--10----------------------------|
B|-------------------|-------------------------|------10------------------------|
G|-------------------|-------------------------|----------12~----10------12b----|
D|-------------------|-------------------------|---------------------12---------|
A|-------------------|-------------------------|--------------------------------|
E|-------------------|-------------------------|--------------------------------|


RHYTHM GUITAR - this is the basic progression with the little twidly bit
at the end of each verse

         ^                       ^                       ^                
    Q    E  Q    E  Q       Q    E  Q    E  Q       Q    E  Q    E  Q     
e|--5----5--5----5--5----|--5----5--5----5--5----|--5----5--5----5--5----|
B|--6----6--6----6--6----|--6----6--6----6--6----|--5----5--5----5--5----|
G|--7----7--7----7--7----|--7----7--7----7--7----|--5----5--5----5--5----|
D|--7----7--7----7--7----|--7----7--7----7--7----|--7----7--7----7--7----|
A|--5----5--5----5--5----|--5----5--5----5--5----|--7----7--7----7--7----|
E|-----------------------|-----------------------|--5----5--5----5--5----|

         ^                       ^                       ^                
    Q    E  Q    E  Q       Q    E  Q    E  Q       Q    E  Q    E  Q     
e|--5----5--5----5--5----|--5----5--5----5--5----|--5----5--5----5--5----|
B|--5----5--5----5--5----|--6----6--6----6--6----|--6----6--6----6--6----|
G|--5----5--5----5--5----|--7----7--7----7--7----|--7----7--7----7--7----|
D|--7----7--7----7--7----|--7----7--7----7--7----|--7----7--7----7--7----|
A|--7----7--7----7--7----|--5----5--5----5--5----|--5----5--5----5--5----|
E|--5----5--5----5--5----|-----------------------|-----------------------|

         ^                       ^                                         
    Q    E  Q    E  Q       Q    E  Q    E  Q       Q    E  E  E  E  Q     
e|--3----3--3----3--3----|--3----3--3----3--3----|--5----5--5--5--5--5----|
B|--3----3--3----3--3----|--3----3--3----3--3----|--6----6--6--5--5--5----|
G|--3----3--3----3--3----|--3----3--3----3--3----|--7----7--7--5--5--5----|
D|--5----5--5----5--5----|--5----5--5----5--5----|--7----7--7--7--7--7----|
A|--5----5--5----5--5----|--5----5--5----5--5----|--5----5--5--7--7--7----|
E|--3----3--3----3--3----|--3----3--3----3--3----|-------------5--5--5----|


    Q    E  E  E  Q    E      S  S  Q       E  E  E  E  E                   
e|--3----3--3--5--5----5--|--10----------------------------|-------|-------|
B|--3----3--3--5--5----6--|-----10S-8br~----6--------------|-------|-------|
G|--3----3--3--5--5----7--|--------------------7-----------|-------|-------|
D|--5----5--5--7--7----7--|-----------------------7--3-----|-------|-------|
A|--5----5--5--7--7----5--|-----------------------------5--|-------|-------|
E|--3----3--3--5--5-------|--------------------------------|-------|-------|



************************************

| ~    Vibrato
| g    Grace note
| pbr  Pre-bend release
| b    Bend
| br   Bend release  
| L    tied note   
| S    shift slide 
| S    16th  

************************************
Suggest correction
comments
print report bad tab
8 comments total. Showing first comments.
0 reply
DaveMN 187 Dec 24, 2009 09:05 PM

Great tab, thank you so much

0 reply
DaveMN 187 Dec 25, 2009 12:04 AM

I might add, a hundred times better than any other. Except for your guitar pro one I guess but I can't open that for some reeason. I've been looking for a good tab for this for ages, I started doing the solo myself but this is much easier to follow. Thanks again

0 reply
clear and blue 226 Dec 25, 2009 06:42 AM

its a pleasure, thank you for the kind words

guest
You may want to rate the tab now too:
select rating
Wanna post a correction for this tab? Suggest correction