Oops, an error
Loading. Please wait.

Black Magic Woman Tab

version 3
version 3

Whole song

Interactive

15,951 views 15 this week
no commentswrite comment
1 2 3 4 5
x 4
add to favorites
launch autoscroll
font size
0
reset
how to read this tab
guitar tuner
Autoscroll
slow
fast
+/-
esc
set tempo
stop
Author
Black Magic Woman
Peter Greens Fleetwood Mac

|-17-|---------------|-------------|-17-|
|-18-|-----5-7-------|-------------|-18-|
|-19-|-5-7-----7/5-3-|-12fbrp10-12-|-19-|
|----|---------------|-------------|----|
|----|---------------|-------------|----|
|----|---------------|-------------|----|

|---------------------|-------------|-----------|-----------13-|
|-----5-----------5/7-|-----5-7-----|-10--10-13-|-----10-13----|
|-5/7---7/5-3-5-3-----|-5-7-----5-7-|-10--------|-/10----------|
|---------------------|-------------|-12--------|--------------|
|---------------------|-------------|-----------|--------------|
|---------------------|-------------|-----------|--------------|
Solo
|-17-|-------------------|---15fb-15-13-10-13p10------|
|-18-|-15--15--13--13-15-|-15-------------------13-10-|
|-19-|---14--14--14------|----------------------------|
|----|-------------------|----------------------------|
|----|-------------------|----------------------------|
|----|-------------------|----------------------------|

|-13fb-13fb-13-10---------------------------------------------|
|----------------10-13-13fb-13fb-13-10------------------------|
|-------------------------------------12fb-12p10-12-10--10-12-|
|-----------------------------------------------------12------|
|-------------------------------------------------------------|
|-------------------------------------------------------------|

|---10-13-13fb-13-10------------------10----------------------------|
|-10----------------10--------------10--13fb-13-10---------------10-|
|---------------------12hbr-10--12fb--------------12fb-12-10-12fb---|
|-----------------------------12------------------------------------|
|-------------------------------------------------------------------|
|-------------------------------------------------------------------|

|------------------------|
|------------------------|
|-10h12p10---------------|
|---------12p10----------|
|--------------12p10/8---|
|---------------------10-|
second part of solo (with reverb)
|-15fb------13-15p13-|---15fb-15-13-10-13p10--10------------------------|
|---------15---------|-15-------------------13--13-10-13p10--10---------|
|--------------------|-------------------------------------12--12-10-12-|
|--------------------|--------------------------------------------------|
|--------------------|--------------------------------------------------|
|--------------------|--------------------------------------------------|

|------10-13--10------------------10-------------------------|
|-10-13-----13--13-10-----------10--13-10--------------------|
|--------------------12fbrp10-12---------12fbrp-12-10--10-12-|
|----------------------------------------------------12------|
|------------------------------------------------------------|
|------------------------------------------------------------|

|----------------------|-13fb-13-----10----------------------------------|
|------10--------------|--------10-13--13-10-----------------------------|
|-10-12--10-12p10------|--------------------12fbrp10-12-10---------------|
|----------------12-12-|----------------------------------12-10----------|
|----------------------|---------------------------------------12p10/8---|
|----------------------|----------------------------------------------10-|
end solo
|-17-|------------|-----------|----------13fb-13--------|
|-18-|----5-7-----|------5-7--|-10-10/13--------13p10---|
|-19-|-5-7---5/3--|-5-7-7---7-|-10-------------------12-|
|----|----------5-|-----------|-12----------------------|
|----|------------|-----------|-------------------------|
|----|------------|-----------|-------------------------|

I am yet to type up the last bit of the song,
hope you all enjoy
Suggest correction
comments
print report bad tab
guest
You may want to rate the tab now too:
select rating
Wanna post a correction for this tab? Suggest correction