Oops, an error
Loading. Please wait.

Dreams Tab

version 1
version 1

Acoustic

Whole song

Interactive

49,306 views 117 this week
1 commentread comment
1 2 3 4 5
excellent!
x 32
add to favorites
launch autoscroll
font size
0
reset
how to read this tab
guitar tuner
Autoscroll
slow
fast
+/-
esc
set tempo
stop
Help us to improve Ultimate-Guitar.com Take our survey!
×
Author
Difficulty
novice
Tabbed By: Mark Peters
Email: markpeterz@hotmail.co.uk
FLEETWOOD MAC - DREAMS (ACOUSTIC)

Tuning: Standard (EADGBE)


    Fmaj    Am     G/C

e|----0------0------0-----------------------------------------------------------|
B|----1------1------1-----------------------------------------------------------|
G|----2------2------0-----------------------------------------------------------|
D|----3------2------0-----------------------------------------------------------|
A|----3------0------2-----------------------------------------------------------|
E|----0------0------3-----------------------------------------------------------|


[Verse]

(Fmaj& G/C repeated)


Fmaj                G/C
    Now here you go again
            Fmaj          G/C
You say you want your freedom
Fmaj        G/C
Well who am I to keep you down
Its only right that you should
Play the way you feel it
But listen carefully to the sound
Of your loneliness
Like a heartbeat.. drives you mad
In the stillness of remembering what you had
And what you lost...
And what you had...
And what you lost


[Chorus]

Am           G/C                  Fmaj
Thunder only happens when its raining
Am         G/C                 Fmaj
Players only love you when theyre playing
       Am                 G/C              Fmaj
Say... women... they will come and they will go
Am                 G/C            Fmaj
When the rain washes you clean you'll know... you'll know


[Solo]

1.47 in the song 
                                     x2  
e||---8------------------------------||--------------------------|
B||------10--8--10----10--8----------||---------10--8------------|
G||-----------------7--------7--5----||----------------7---------|
D||--------------------------------7-||-------------------7------|
A||----------------------------------||--------------------------|
E||----------------------------------||--------------------------|


[Verse]

(Fmaj & G/C repeated)

Now here I go again, I see the crystal visions
I keep my visions to myself
Its only me
Who wants to wrap around your dreams and...
Have you any dreams youd like to sell?
Dreams of loneliness...
Like a heartbeat... drives you mad...
In the stillness of remembering what you had...
And what you lost...
And what you had...
And what you lost


[Chorus]

Am           G/C                  Fmaj
Thunder only happens when its raining
Am         G/C                 Fmaj
Players only love you when theyre playing
       Am                 G/C              Fmaj
Say... women... they will come and they will go
Am               G/C                  Fmaj
When the rain washes you clean you'll know... you'll know
Suggest correction
comments
print report bad tab
1 comment total.
+1 reply
mapeterz 537 wrote on February 11 2008, 08:55 am

I revised the little solo at 1.47 and realised it's easier to play it like this and also realised a mistake:


1st time

e|---8--------------------------------------------------------|
B|------10--8--10------10--8----------------------------------|
G|-----------------7----------7--5----------------------------|
D|---------------------------------7--------------------------|
A|------------------------------------------------------------|
E|------------------------------------------------------------|

2nd time

e|---8-------------------------------¬-------------------------|
B|------10--8--10------10--8---------¬--10--8------------------|
G|-----------------7----------5--7---¬---------7---------------|
D|---------------------------------7-¬------------7------------|
A|-----------------------------------¬-------------------------|
E|-----------------------------------¬-------------------------|

guest
You may want to rate the tab now too:
select rating
Wanna post a correction for this tab? Suggest correction