Oops, an error
Loading. Please wait.

Dreams Tab

version 1
version 1

Whole song

Interactive

61,526 views 129 this week
no commentswrite comment
1 2 3 4 5
accurate
x 8
add to favorites
launch autoscroll
font size
0
reset
how to read this tab
guitar tuner
Autoscroll
slow
fast
+/-
esc
set tempo
stop
Help us to improve Ultimate-Guitar.com Take our survey!
×
Author
Hi, I've tabbed this once before but I hadn't registered.
The song has two guitars. On mainly acting as bass (but not always), and the
other mainly acting as lead (but not always).
Guitar 1 is the bass and Guitar 2 is the lead. Guitar 1 is easier.
This is a great song and really worth learning-I hope my version's right!
Enjoy!

Song: Dreams
Artist: Fleetwood Mac
Album: Rumors

[Verse]

Lyrics

1. Now here you go again; you say, 'You want your freedom'. Well who am I to bring you down?
2. Now here I go again; I see, my crystal visions. I keep my visions to myself.

  Guitar 1:
e|----------------------------------------------------|
B|----------------------------------------------------|
G|----------------------------------------------------|
D|-----0-2-0---------------0---------0-2-0---0--------|
A|-0-3-------3-0-3---0-3-0---0---0-3-------3---0------|
E|----------------------------------------------------|

  Guitar 2:
e|----------------------|
B|-----1---7----7---7---|
G|--2-------------------|
D|-----3---5--5--5------|
A|--3-------------------|
E|----------------------|


[Pre-Chorus] 1's:
Lyrics:

1: It's only right that you should play the way you feel it: but listen carefully to the 
of the loneliness.
2: It's only me who wants to wrap around your dreams, well; have you and dreams you'd 
to sell; dreams of loneliness.

Guitar 1:
(Chords):A, G, F, G      X2

  Guitar 2:
e|-------------|
B|-5--0--1--3--|
G|-------------|          X2
D|-------------|
A|-0-----------|
E|----3--1--3--|

[Pre-Chorus 2] (The same both times):
Lyrics:

Like a heart-beat drives you mad, in the stillness of remembering what you had, and what 
lost, and what you had, ooh, what you lost-oh-

Guitar 1:
(Chords)F, G, F, G         X3

  Guitar 2:
e|---------------------------|
B|----1-------1----3-----3---|
G|----2-------2----4-----4---|    X6
D|---------------------------|
A|--3------3-----5----5----5-|
E|---------------------------|


[Chorus]

Lyrics:

Thunder only happens when it's raining, players only love you when they're playing

Guitar 1:
(Chords) Am, G, Am, G   X2

  Guitar 2:
e|------------------------|
B|--1----1-------0-----0--|
G|--2----2-------0-----0--|               X4
D|------------------------|
A|--0--0----0-------------|
E|-------------3----3-----|


[Outro]

Lyrics:

Say women, they will come and they will go. Where the rain washes you clean you'll know. 
know

Guitar 1:
(Chords)A, G, F, G           X3

  Guitar 2:
e|-------------|
B|-5--0--1--3--|
G|-------------|          X3
D|-------------|
A|-0-----------|
E|----3--1--3--|


That should be it. Please rate!
Suggest correction
comments
print report bad tab
guest
You may want to rate the tab now too:
select rating
Please do not post tabs as comments. Select "correction" instead!