Oops, an error
Loading. Please wait.

First Train Home tab

301 views 1 this week
no commentswrite comment
1 2 3 4 5
2 more votes to show rating
add to favorites
×
Save as Personal and add changes to this tab that will be seen only by you. Learn more ›
×
You can save this tab as Personal to edit and correct it or add notes. All changes will be seen only by you. Learn more »
launch autoscroll
font size
0
reset
how to read this tab
guitar tuner
edit
Autoscroll
slow
fast
+/-
esc
set tempo
stop
Author
Written by Peter Green
First Train Home
Compilation Album - The Original Fleetwood Mac - 1971

Key of D minor.
All in the minor pentatonic scale.

Transcribed by John Brennan 27/07/16

[Intro]

e|---------------------------------------------------|
B|--10--13B15--13--10--------------------------------|
G|--------------------12--12B14~~--------------------|
D|---------------------------------------------------|
A|---------------------------------------------------|
E|---------------------------------------------------|
0.08
P.M.------
e|---------------------------------------------------|
B|---------------------------------------------------|
G|---12------10~---------10h12-10qb------------------|
D|12----12------(12)----------------12p10------------|
A|---------------------------------------h12--8h10p8-|
E|---------------------------------------------------|
0.17
e|----13p10---------13-------15b17r15b17~--13--------|
B|-10-------13b15~--------------------------------15~|
G|---------------------------------------------------|
D|---------------------------------------------------|
A|---------------------------------------------------|
E|---------------------------------------------------|

e|13p10---------------10-----------------------------|
B|-----13b14-13-10-13--------------------------------|
G|-------------------------10h12-12p10-12-12qb-------|
D|---------------------------------------------12----|
A|---------------------------------------------------|
E|---------------------------------------------------|
0.35
e|--10-----------------------------------------------|
B|--*r--13-10--10------------------------------------|
G|--*a-------12--10----------------------------------|
D|--*k-------------12p10-----------------------------|
A|--*e------------------12-11-10s8--8--8-10p8--8-----|
E|--------------------------------10-10------10------|
0.41
e|----10---------------------------------------------|
B|--10--10--------10-------(10)----------------------|
G|--------12b13-12--12b13~--(12)--(12)-(12b13)~------|
D|---------------------------------------------------|
A|---------------------------------------------------|
E|---------------------------------------------------|

e|---12b13r12-11----------------13b15r13~-11---------|
B|--------------13-13b15~-------------------13-13b15~|
G|---------------------------------------------------|
D|---------------------------------------------------|
A|---------------------------------------------------|
E|---------------------------------------------------|
0.53
e|---13p10-------------------------------------------|
B|--------13b15-13-11-13p11--10----------------------|
G|-------------------------12--10--------------------|
D|-------------------------------12p10--10-----------|
A|------------------------------------12-------------|
E|---------------------------------------------------|

e|---------------------------------------------------|
B|---------------------------------------------------|
G|------------------------------------10-------------|
D|----------------------10--------------12p10--------|
A|-12-11-10s8-10-8-10s12---------------------12------|
E|---------------------------------------------------|


[Verse 1]


I'm gonna catch the first train home
e|---------------------------------------------------|
B|---------------------------------------------------|
G|----10--10-12-12b13r12-----------------------------|
D|--12--12--------------12~--------------------------|
A|---------------------------------------------------|
E|---------------------------------------------------|
I don't know what I come here for
e|-----------10--------10----------------------------|
B|---10--------13-13b15--13-10-----------------------|
G|---12b14~-------------------12-10-12b13r12p10------|
D|---------------------------------------------12~---|
A|---------------------------------------------------|
E|---------------------------------------------------|

e|--13p10-----10-------------------------------------|
B|-------13b15--13-----13p10-----------------------------|
G|--------------------------12b13r12p10~-----------------|
D|---------------------------------------------------|
A|---------------------------------------------------|
E|---------------------------------------------------|
Yeah, first train home
e|---------------------------------------------------|
B|---------------------------------------------------|
G|----12b13r12p10------12-10------10~----------------|
D|---------------12----------12----------------------|
A|---------------------------------------------------|
E|---------------------------------------------------|
I don't know what I come here for
e|---------------13p10--10~--------------------------|
B|--13b15~--10-13-----13-----------------------------|
G|---------------------------------------------------|
D|---------------------------------------------------|
A|---------------------------------------------------|
E|---------------------------------------------------|

e|---------------------------------------------------|
B|----13p10---------------------------10-------------|
G|---------12-12b13r12p10-12p10-----12--10-12p10-----|
D|-----------------------------12---------------12---|
A|---------------------------------------------------|
E|---------------------------------------------------|
'Cause for nine long years
e|---------------------------------------------------|
B|---------------------------------------------------|
G|---10----------------------------------------------|
D|-----12p10--10---10-12-----------------------------|
A|----------12---------------------------------------|
E|---------------------------------------------------|
I couldn't even walk out of my door
e|13p10----------------------------------------------|
B|-----13-10-13b15~----------------------------------|
G|---------------------------------------------------|
D|---------------------------------------------------|
A|---------------------------------------------------|
E|---------------------------------------------------|

e|--------13-12-10-----------------------------------|
B|----10------------13-13b15-13-10-------------------|
G|-----------------------------------12b13r12p10~----|
D|---------------------------------------------------|
A|---------------------------------------------------|
E|---------------------------------------------------|
Here's what I say

[Solo]
1.58
e|-------------------------10------------------------|
B|------------------10-13----------------------------|
G|-------10-12---------------------------------------|
D|--10-12--------------------------------------------|
A|---------------------------------------------------|
E|---------------------------------------------------|

e|----13-10--------------------------------10--------|
B|--10-----13-10-13-10-13b15~----13-10-13qb----------|
G|---------------------------------------------------|
D|---------------------------------------------------|
A|---------------------------------------------------|
E|---------------------------------------------------|

e|-----------10-----------10-------------------------|
B|-13p10-13qb---13p10-13qb-----13-10-13p10-----------|
G|----------------------------------------12b13r12p10|
D|---------------------------------------------------|
A|---------------------------------------------------|
E|---------------------------------------------------|

e|---------------------------------------------------|
B|---------------------------------------------------|
G|--12-10--10-12b13r12p10----------------------------|
D|-------12--------------12~-----(10)----------------|
A|-----------------------------------(12s10)-(8)-----|
E|---------------------------------------------------|
2.15
e|---------13-------15b17----13-15-15b17-15-13-15----|
B|10-13s15-------15------15----------------------15~-|
G|---------------------------------------------------|
D|---------------------------------------------------|
A|---------------------------------------------------|
E|---------------------------------------------------|
2.28
e|--17-15-13-15---------13-15-15b17-15b17~-----------|
B|-------------15~----15-----------------------------|
G|---------------------------------------------------|
D|---------------------------------------------------|
A|---------------------------------------------------|
E|---------------------------------------------------|
2.36
e|----10---------------------------------------------|
B|--10--13-------------------------------------------|
G|--------12b14r12-12p10-----------------------------|
D|----------------------12~-------(10)---------------|
A|----------------------------(12)----(12s10)-(8)----|
E|---------------------------------------------------|

e|---------10----------------------------------------|
B|-------10-----------------------------10-----------|
G|--12b14----12b14~----12b14r12-10-12p10-------------|
D|----------------------------------------12p10------|
A|---------------------------------------------12~---|
E|---------------------------------------------------|
2.46
e|---------13b15-13-10-13p10-------------------------|
B|--13b15~-------------------13b15-13-10-13p10-------|
G|--------------------------------------------12b14--|
D|---------------------------------------------------|
A|---------------------------------------------------|
E|---------------------------------------------------|

e|-------------------10------------------------------|
B|-------------------x--13p10-----------------10-----|
G|---12-10-12p10-----x-------12p10-------10h12-------|
D|--------------12---x-------------12~----x----------|
A|---------------------------------------------------|
E|---------------------------------------------------|


e|---------------------------------------------------|
B|-----------10-----10---------------------10--------|
G|---12p10---10h12-------12-10--10--10h12------------|
D|12------h12-----------------12--12-----------------|
A|---------------------------------------------------|
E|---------------------------------------------------|


e|---------------------------------------------------|
B|---------------------------------------------------|
G|--12b13r12p10--------------------------------------|
D|-------------12-12~--------------------------------|
A|---------------------------------------------------|
E|---------------------------------------------------|

[Verse 2]

I'm gonna catch the first train home
3.05
e|---------10----------------------------------------|
B|-------10--13b15~~---------------------------------|
G|--12b14--------------------------------------------|
D|---------------------------------------------------|
A|---------------------------------------------------|
E|---------------------------------------------------|
I don't know what I come here for

e|-13b15~~-13-10-------------------------------------|
B|---------------13b15~-13-10-13p10------------------|
G|---------------------------------12b14r12p10-------|
D|---------------------------------------------12----|
A|---------------------------------------------------|
E|---------------------------------------------------|

e|-----10--------------------------------------------|
B|-----10----------------10--------------------------|
G|-12-10~---12-10---10h12--12p10---------------------|
D|-------12------12-------------12~------------------|
A|---------------------------------------------------|
E|---------------------------------------------------|

e|---------------------------------------------------|
B|---------------------------------------------------|
G|--------------------------10--12~wv----------------|
D|---10-------------------12--12---------------------|
A|-12--12-11-10-8~-----------------------------------|
E|----------------10\--------------------------------|
The first train, the first train home

e|---------------------------------------------------|
B|--------------------------------(10~)--------------|
G|----10-12-10-12-----10-12-10h12--------------------|
D|--12-----------12~---------------------------------|
A|---------------------------------------------------|
E|---------------------------------------------------|
I don't know what I come here for

e|---------------------------------------------------|
B|---10~---10-13-13b15~------------------------------|
G|---12b14~------------------------------------------|
D|---------------------------------------------------|
A|---------------------------------------------------|
E|---------------------------------------------------|

e|---13b15-13-10-13p10-------------------------------|
B|-----------------------13b15-13-10-----------------|
G|---------------------------------------------------|
D|---------------------------------------------------|
A|---------------------------------------------------|
E|---------------------------------------------------|

e|--------------------------10-----------------------|
B|-13p10-------------------x--13-10------------------|
G|------12b14r12p10-12p10-x--------12b14r12p10-12p10-|
D|---------------------------------------------------|
A|---------------------------------------------------|
E|---------------------------------------------------|

e|---------------------------------------------------|
B|---------------------------------------------------|
G|-12b14r12p10-12p10---------------------------------|
D|------------------12-------------------------------|
A|---------------------------------------------------|
E|---------------------------------------------------|
'Cause for nine long years,

e|---------------------------------------------------|
B|---------------------------------------------------|
G|---------------------------------------------------|
D|----10---------------------------------------------|
A|-/12--12-10r---------------------------------------|
E|---------------------------------------------------|

 I couldn't even walk out of my door

[Outro]

e|---------10----------------------------------------|
B|-------10---13b15~---------------------------------|
G|--12b14--------------------------------------------|
D|---------------------------------------------------|
A|---------------------------------------------------|
E|---------------------------------------------------|


e|---13b15-13-10-------------------------------------|
B|---------------13p10-------------------------------|
G|--------------------12b14r12p10--12-10-------------|
D|-------------------------------12-----12p10-12-----|
A|---------------------------------------------------|
E|---------------------------------------------------|


e|------10-------------------------------------------|
B|------10-------------------------------------------|
G|------10-------------------------------------------|
D|---------------------------------------------------|
A|---------------------------------------------------|
E|--13-----------------------------------------------|


            
            
Suggest correction
Creating personal tab
Creating personal tab
You can edit any tab online and save it as your Personal.

You can edit, replace or remove any tab part or add personal notes – all changes will be seen only by you.

Personal tabs can be accessed anytime from any device, even offline.
Learn more »
Give kudos to tab author, rate the tab!
1 2 3 4 5
comments
print report bad tab
guest
You may want to rate the tab now too:
select rating
Wanna post a correction for this tab? Suggest correction