Oops, an error
Loading. Please wait.

Hypnotized Tab

1,709 views 18 this week
no commentswrite comment
1 2 3 4 5
excellent!
x 1
add to favorites
launch autoscroll
font size
0
reset
how to read this tab
guitar tuner
Tab Pro tools
  • play this tab
  • loop segment
  • change instrument
  • show fretboard
  • metronome
Autoscroll
slow
fast
+/-
esc
set tempo
stop
Contributor
Difficulty
intermediate
-------------------------------------------------------------------------------
                             Hypnotized - Fleetwood Mac
-------------------------------------------------------------------------------
Tabbed by:Duff B.
E-mail:duffbrainard@yahoo.com

Tuning:standard

This is my first tab so be kind.

This is the acoustic part (as far as I can tell)
e|-------------------------------------------------------------------------------|
B|--------------------6/8--11----------------------------------------------------|
G|-------10--------------------10--8---------------------------------------------|
D|------------------------------------10-----------------------------------------|
A|-------8------------10--------------------and repeat throughout the song-------|
E|--8-----------8----------------------------------------------------------------|

and this is the concurrent electric part
e|--------------------------------------------------------------------------------|
B|--13\---------------8-----------------------------------------------------------|
G|--------10----------------------------------------------------------------------|
D|--10\------------------------(rest)---------and repeat--------------------------|
A|--------8-----------10----------------------------------------------------------|
E|---------------8----------------------------------------------------------------|

then there's the "Feel's like a dream...." that breaks in in several spots
e|-------------------------------------------------------------------------------|
B|---1---1--------4---3----------------------------------------------------------|
G|---1---1--------5---4----------------------------------------------------------|
D|---3---3--------6---3----------------------------------------------------------|
A|---3---3--------6---5----------------------------------------------------------|
E |---------------4---3----------------------------------------------------------|

There's a solo that's way beyond my capacities or patience to figure out but it's a 
beautiful song. Have fun!

************************************

| /   slide up
| \   slide down
| h   hammer-on
| p   pull-off
| ~   vibrato
| +   harmonic
| x   Mute note
| b   Bend
| pb  Pre-bend
| br  Bend release
| pbr Pre-bend release
| brb Bend release bend

************************************
comments
We did not receive enough feedback on this tab! Please rate:
print report bad tab
1 2 3 4 5
I want to post or [tab]
guest
You may want to rate the tab now too:
select rating
Please do not post tabs as comments. Select "correction" instead!