Oops, an error
Loading. Please wait.

I Dont Want To Know Bass Tab

version 1
version 1

Whole song

4,959 views 27 this week
2 commentsread comments
1 2 3 4 5
x 6
add to favorites
launch autoscroll
font size
0
reset
guitar tuner
Autoscroll
slow
fast
+/-
esc
set tempo
stop
Help us to improve Ultimate-Guitar.com Take our survey!
×
Artist: Fleetwood Mac
Song: I Don't Want To Know
Album: Rumours (1977)
Bassist: John McVie

Tuning: standard

Intro
G|---------------------------------------------------------------|
D|--------4--2--4-2-4-----4--2--4--------------------------------|
A|-----2---------------2-----------------------------------------|
E|---------------------------------2-----------------------------|

Chorus
G|---------------------------------------------------------------|
D|-----4--2--4----------4--2--4----------------------------------|
A|--2---------4------2-------------------------------------------|
E|-------------2-4---------------2-------------------------------|

And sometimes I change it to:

G|---------------------------------------------------------------|
D|-----4--2--4----------4--2--4----------------------------------|
A|---2---------4------2------------------------------------------|
E|-0-------------2-4-------------2-------------------------------|

Verse/Finally baby...
G|---------------------------------------------------------------|
D|-------2--4-4~---------------2--4-4----------------------------|
A|--2-2-------------------2-2------------------------------------|
E|--------------2-2-2-----------------2-2-2----------------------|

Outro
G|---------------------------------------------------------------|
D|--------4--2--4-2-4-----4--2--4--------------------------------|
A|-----2---------------2-----------------------------------------|
E|-----------------------------------2---------------------------|

| /  slide up
| \  slide down
| h  hammer-on
| p  pull-off
| ~  vibrato
| +  harmonic
| x  Mute note
===============================================================================
Suggest correction
comments
print report bad tab
2 comments total.
0 reply
Court-Dawg 10 Jun 24, 2013 02:03 PM

great job! i love to listen and play this song!!!!!

0 reply
john.haralampop 20 May 23, 2015 01:49 PM

looks good!

guest
You may want to rate the tab now too:
select rating
Wanna post a correction for this tab? Suggest correction