Oops, an error
Loading. Please wait.

I Dont Want To Know Tab

version 1
version 1

Whole song

7,937 views 15 this week
1 commentread comment
1 2 3 4 5
excellent!
x 4
add to favorites
launch autoscroll
font size
0
reset
how to read this tab
guitar tuner
Autoscroll
slow
fast
+/-
esc
set tempo
stop
Help us to improve Ultimate-Guitar.com Take our survey!
×
Author
Difficulty
intermediate
Song: I Don't Want To Know
Artist: Fleetwood Mac
Written by: Stevie Nicks
Guitarist: Lindsey Buckingham

This song is mostly acoustic chords with some electric 
parts and a solo. The two electric parts I have labeled 
'1' and '2' and indicated where they occur alongside the 
chords. These and the solo can be found below. 


Intro: B  F#  E  F#  E  F#  B  F#  E  F#  x2

B               F#          E
I don't want to know the reasons why
F#         B        F#              E        F
love keeps right on walkin' on down the line,
B               F#               E
I don't want to stand 'tween you and love
F#            B           F#    1 E  F#
Honey, I just want you to feel fine,            x2

B  E F#
      Finally baby
B  E F#
      The truth has come down now,
B  E F#
      Take a listen to your spirit
B  E F#
      It's crying out loud,
B  E F#
      Tryin’ to believe
B  E F#
   Oh  you say you love me, but you don't know,
B  E F#
      You got me rockin' and a-reelin'
B  E F#
      Oh, oh, 
B  E F#  2
Yeah, A-Haa


B               F#          E
I don't want to know the reasons why
F#         B        F#              E   1    F
love keeps right on walkin' on down the line,
B               F#               E
I don't want to stand 'tween you and love
F#            B           F#   1  E  F#
Honey, I just want you to feel fine,           x2

B  E F#
      Finally baby
B  E F#
      The truth has been told,
B  E F#
      Now you tell me that I'm crazy
 B  E F#
      It's nothing that I didn't know,
B  E F#
      Trying to survive
B  E F#
   Oh you say you love me, but you don't know,
B  E F#
      You got me rockin' and a-reelin'
B  E F#
      Hey I Belong To You
 B  E F#
      Oh, oh, 
B  E F#  2
Yeah, A-Haa


B               F#          E
I don't want to know the reasons why
F#         B        F#              E   1    F
love keeps right on walkin' on down the line,
B               F#          1    E
I don't want to stand 'tween you and love
F#    B      F#           E  F#
Honey,      take a little time,            

(Solo)

B  F# E  F#  E  F#  B   F#  E F#
Aaaaaaaaaaah
F#              B    F# E  F# E F# B E B
I don't want to know


Part 1:                        Part 2:
E|--9/11\9-7--|                E|---------------|
B|--9/11\9-8--|                B|---------------|
G|------------|                G|---6-8-6-6-----|
D|------------|                D|--9------9--9--|
A|------------|                A|---------------|
E|------------|                E|---------------|

Solo:
E|--------------------------------------------------------------------|
B|--7-7-7-7-7-7-5/4\5-5-5-5-2-0--4v-4v-2-4-2-0---0-2-4-2---0-4v--7-9--|
G|-------------------------------4v-4v-3-4-3-1-1-1-3-4-3--1--4v--8-9--|
D|---------------------------------------------2---------4------------|
A|--------------------------------------------------------------------|
E|--------------------------------------------------------------------|

E|--------------------------------------------------------------------|
B|-7---7-9-7-------------7-7-----------7-7-7-7-7-7-5/4\5-5-5\7--2-4-4-|
G|-8-8-8-9-8-8\6-------8-8-8-8-8-9---8--------------------------3-4-4-|
D|---9-------9\8-8---9-9-----9-9-11--9--------------------------------|
A|---------------9-11-------------------------------------------------|
E|--------------------------------------------------------------------|

E|------------------------7-7-7-9-11-11-12-11-9-7-9-11-11-12-11-12----|
B|-2-4-2-0-2-4-0-2--4-5-7-7-7-7-9-12-12-12-12-9-7-9-12-12-12-12-12----|
G|-3-4-3-1-3-4-1-3--4-6-8---------------------------------------------|
D|--------------------------------------------------------------------|
A|--------------------------------------------------------------------|
E|--------------------------------------------------------------------|

E|-11-9-7-9-11-7-9--|
B|-12-9-7-9-12-7-9--|
G|------------------|
D|------------------|
A|------------------|
E|------------------|

Tabbed by: Myunlyt
Email: the_stray_@hotmail.com
Suggest correction
What's this?
You can suggest a correction to this tab. Community and Mods will review your correction and vote to approve or reject it.
comments
print report bad tab
1 comment total.
0 reply
john.haralampop 41 wrote on May 23 2015, 01:48 pm

very nice tab

guest
You may want to rate the tab now too:
select rating
Please do not post tabs as comments. Select "correction" instead!