Oops, an error
Loading. Please wait.

Jumping At Shadows Live Tab

9,082 views 39 this week
no commentswrite comment
1 2 3 4 5
excellent!
x 4
add to favorites
launch autoscroll
font size
0
reset
how to read this tab
guitar tuner
Tab Pro tools
  • play this tab
  • loop segment
  • change instrument
  • show fretboard
  • metronome
Autoscroll
slow
fast
+/-
esc
set tempo
stop
Contributor
Jumping At Shadows LIVE off "Live in Boston Volume 1"

  fb = Full bend
  hb = Half bend
   / = Slide
   p = Pull off
   h = Hammer on
 fbr = Full bend and release
fbrp = Full bend and release then pull off
Guitar 1
|-10fb-10-------|----------------------------------|
|--------10hb-8-|------8-10hb-10hb-10fbrp8-8--h10--|
|---------------|-7-8-9-------------------9--------|
|---------------|----------------------------------|
|---------------|----------------------------------|
|---------------|----------------------------------|

|-----3--3---------------------------3--------------------------------------|
|-6fb--3--3--6---3-----------------3--6------3----------------------------3-|
|-----------------5-3-00--3-5-5fbr------5hbr---3---------3-5--5hbrp3----/4--|
|------------------------------------------------5--0h3h5-----------5-5-----|
|---------------------------------------------------------------------------|
|---------------------------------------------------------------------------|
Guitar 2
|-10---12/10--8-7----|-8-7--------|-----------------------------------|
|----------------88--|----8-----8-|----8-10hb-8h10p8-8-10-10hb-8-8-10-|
|------------------9-|-----7-7h9--|-7-9-------------9-----------9-----|
|--------------------|------------|-----------------------------------|
|--------------------|------------|-----------------------------------|
|--------------------|------------|-----------------------------------|

|-------3--------------3-----------3-----------|--------------------|
|----8--3-----------6fb-6-3-------3-6-3--------|-----------------3--|
|-7/9-----3hb--------------5-3h4h5-----5fbrp3--|--------------------|
|-------------5-p0-----------------------------|------3h5p3-3h4h5-5-|
|--------------------------------------------5-|-3h4h5-----5--------|
|----------------------------------------------|--------------------|
                                      1:41
|------------------------3----------|----------|
|--------------------3-6-3-3-6-3----|-6fb hold-|
|-3--------5-3-2---/4-----------6-5-|----------|
|--5-3---/5-------------------------|----------|
|-----3-----------------------------|----------|
|-----------------------------------|----------|
  1:51                                   2:05                   2:15
|----5-6------------------3--3---------|-6fb-3-3--------------|----------|
|-3/5-5---3-----------3-6-3-3-6-3------|-3----6-6-3-----------|----------|
|----------5fbr-3---/4-----------5fb-5-|-----------5fb-5-3----|-5-3------|
|----------------55--------------------|------------------5p0-|----5-5p0-|
|--------------------------------------|----------------------|----------|
|--------------------------------------|----------------------|----------|
  2:22       2:31
|-5hbr-3-3-|-8-6----------------|
|-------6--|----8-6-3---------3-|
|----------|---------5-3-3-3/4--|
|----------|------------5-------|
|----------|--------------------|
|----------|--------------------|

Solo 2:38
|----3-5-5hbr-3h5p3-3---|--------------8--------------------10fbr---------|
|-3h5--------------6-6--|---8-11p8-11fb-13fb-13-11--------11----8-10fb----|
|---------------------5-|-10----------------------12-10-12----------------|
|-----------------------|-------------------------------------------------|
|-----------------------|-------------------------------------------------|
|-----------------------|-------------------------------------------------|

|-10fbr--10--------------------------------------|
|------10--8---13fb-13fbrp11------11-10--13-11---|
|-----------10--------------12--10-----12-----12-|
|-----------------------------12-----------------|
|------------------------------------------------|
|------------------------------------------------|

|--------12-15-12--12-------------------|--------------------------|
|-12-15fb--------15--15fbr-12-----------|--------------------------|
|----------------------------14fbr-12---|------12h14-14fbrp12--12--|
|------------------------------------14-|-12h14--------------14----|
|---------------------------------------|--------------------------|
|---------------------------------------|--------------------------|

|-12-------------------|---------------------------------|--------|
|----------------------|----------------15fbr-----15fbr--|---8----|
|---14fbr-12--14-12h14-|-----12h14-14fbr-----14fbr-------|-/9-9\7-|
|-----------14---------|12h14----------------------------|--------|
|----------------------|---------------------------------|--------|
|----------------------|---------------------------------|--------|

|-12---------------------------------|-----------------|
|---15--------------------------15---|-----15----------|
|-----14fbr-12-14p12--12-14-14fb--14-|-14fb--12---14fb-|
|-------------------14---------------|-----------------|
|------------------------------------|-----------------|
|------------------------------------|-----------------|

|-----------------------------------|------15-17-19-15--------------------|
|---15-14-13----13-15---------------|-15-17-----------18-15-18fb-18-17-15-|
|-----------14hb-----12-14p12--12---|-------------------------------------|
|-14-------------------------14--14-|-------------------------------------|
|-----------------------------------|-------------------------------------|
|-----------------------------------|-------------------------------------|

|-------------------------------------|------15-17--18-18fb-18-15--15---|
|-17-15-14-12----12-14-14fbrp12--12---|-15-17-----15-------------17--17-|
|------------14----------------14--14-|---------------------------------|
|-------------------------------------|---------------------------------|
|-------------------------------------|---------------------------------|
|-------------------------------------|---------------------------------|

|-----15--------------------------------------|-----------------------------|
|-18fb--18-15---------------------------------|-15fbr----15fbr--------------|
|------------17fbr-15--15----------------15---|------14fbr---14fbr-12-14fbr-|
|--------------------17--17p15p14---15-17--17-|-----------------------------|
|--------------------------------17-----------|-----------------------------|
|---------------------------------------------|-----------------------------|

|---------------------------|
|------15-14-13-------------|
|---12----------15-14-12-12-|
|-14------------------------|End Solo
|---------------------------|
|---------------------------|
  4:02           4:06          4:12
|-6-3----------|-------------|----------|-5-5hb-3--|
|-3--6-3-------|-6fb--6fbr-3-|----------|--3-------|
|-------5fbr-3-|-------------|----------|----------|
|--------------|-------------|----------|----------|
|--------------|-------------|-15-p13---|----------|
|--------------|-------------|-------15-|----------|
  4:26
|--5-6-3----------|
|-5-5---6-3-3-----|
|----------5-3----| The End
|-------------5p0-|
|-----------------|
|-----------------|

comments
print report bad tab
I want to post or [tab]
guest
You may want to rate the tab now too:
select rating
Please do not post tabs as comments. Select "correction" instead!