Oops, an error
Loading. Please wait.

Landslide Tab

version 1
version 1

Live

Whole song

Interactive

13,995 views 39 this week
2 commentsread comments
1 2 3 4 5
excellent!
x 5
add to favorites
launch autoscroll
font size
0
reset
how to read this tab
guitar tuner
Autoscroll
slow
fast
+/-
esc
set tempo
stop
Help us to improve Ultimate-Guitar.com Take our survey!
×
Author
Difficulty
novice
Tabbed by:Dethro (Ryan McMahon)
Email:ikeman1156@yahoo.com

Tuning:Standard EADGBe
Listen to the song and you should be able to find this very easy and simple.

Capo:3rd fret

        C                         G/B                 Am
e|---------------------------------------------------------------------|
B|----------1------------------------3------------------1--------------|
G|----0-------------0---0-------0---------0---0-----2-------2---2------|
D|-------2------------2-----------0---------0---------2-------2--------|
A|--3-----------3-------------2---------2---------0-------0------------|
E|---------------------------------------------------------------------|
       G/B                 Am                      G/B
e|-------------------------------------------------------------------|
B|--------3-----------------1------1p0------------3------------------|
G|----0-------0---0------2-----2--------2-------------0---0----------|
D|------0-------0-----------2-----------2---------------0------------|
A|--2-------2----------0-----------0----------------2----------------|
E|-------------------------------------------------------------------|
      Am7                     G/B                    (C)
e|-----------3---------------------3----------------------3----------|
B|---1----------------------3---------------------1------------------|
G|------2---------2---2-------0----------0---0-------0--------0---0--|
D|--------2---------2-----------0----------0-----------2--------2----|
A|---0----------0-----------2----------2----------3---------3--------|
E|-------------------------------------------------------------------|
         (G/B)                (Am7)                    (G/B) ()=3xs
e|----------3-------------------3------------------------3------------|
B|-3---------------------1----------------------3---------------------|
G|----0---------0---0------2----------2---2--------0---------0---0----|
D|------0---------0----------2----------2------------0---------0------|
A|-2----------2----------0---------0------------2-----------2---------|
E|--------------------------------------------------------------------|
         C                    G/B
e|----------3--------------------------3-------------------------|
B|-1-----------------------3-------------------------------------|
G|----0----------0---0--------0-------------0---0----------------|
D|-------2---------2-------------0------------0------------------|
A|-3----------3------------2--------2-----2----------------------|
E|---------------------------------------------------------------|
          Am                 G/B
e|---------------------------------------------------------------|
B|------1-----1p0-------3----------1-------0h1-------------------|
G|----2---2--------2---------0----------0------------------------|
D|------2----------2-----------0-----------0---------------------|
A|--0---------0------------2----------2--------------------------|
E|---------------------------------------------------------------|
           C                 G/B                Am
e|----------------------------------------------------------------|
B|------------1-------------------3--------------------1----------|
G|------0----------0---0------0--------0---0------2--------2---2--|
D|---------2---------0----------0--------0----------2--------2----|
A|---3-----------3---------2---------2----------0--------0--------|
E|----------------------------------------------------------------|
       D/F#            Chorus play twice  G           D/F#
e|----------------------CHORUS----------------------------------------|
B|--3------1-------------------0------0------------3------1-----------|
G|----2---------2---2------------0---------0---0-----2--------2---2---|
D|------0---------0----------------0---------0---------0--------0-----|
A|--------------------------------------------------------------------|
E|--2--------2-----------------3--------3----------2--------2---------|
         Em            Em                 C               G/B
e|--------0-----------------0-----------------3----------------3--------|
B|-0------------------0-----------------1----------------3--------------|
G|---0--------0---0-----0-------0---0-----0-------0---0----0------0---0-|
D|-----2--------2---------2-------2---------2-------2--------0------0---|
A|--------------------------------------3-------3--------2-------2------|
E|-0--------0---------0-------0-----------------------------------------|
        Am7            D/F#             G               D/F#
e|--------3-----------------------------------3--------------------------|
B|-1------------------3-----1-----------0---------------3-----1----------|
G|---2--------2---2-----2-------2--0------0---------------2-------2---2--|
D|-----2--------2---------0------0----------0----0---0------0-------0----|
A|-0--------0--------------------------------------0---------------------|
E|--------------------2-------2---------3-------3-------2-------2--------|
         Em             Em                C
e|--------0----------------0-----------------3-----------------------|
B|--0----------------0-----------------1-----------------------------|
G|----0-------0---0----0-------0---0-----0-------0---0---------------|
D|------2-------2--------2-------2---------2-------2-----------------|
A|-------------------------------------3-------3---------------------|
E|--0-------0--------0-------0---------------------------------------|
     G/B  CHORUS ENDS   Am
e|-------3-----------------------------------------------------------|
B|-3--------------------1------0----1-----3--------------------------|
G|---0-------0------2-------2----2----2------------------------------|
D|-----0-------0------2--------2--------2----------------------------|
A|-2-------2------0-------0---------0-----2--------------------------|
E|-------------------------------------------------------------------|
          SOLO     G/B
e|---------------------------------------------------------------|
B|------------0--3-------3----------3/5------3-----0-------------|
G|------0h2----------0-------0---0----------------------2-0------|
D|---0-----------------0-------0---------0------0-----0---0------|
A|-3----3----------2-------2--------0--------0-----2----2--------|
E|---------------------------------------------------------------|
      play the open D while hammer and pulloffs
e|----------------------------------------------------------------|
B|------------------------------1----1p0------3-------1------0h1--|
G|-------0h2p0----------------2---2-------2-------0-------0-------|
D|---0----0------0------0-------2---------2---------0--------0----|
A|-3---3-------2----2h3-----0--------0----------2-------2---------|
E|----------------------------------------------------------------|

e|----------------------------------------------------------------|
B|---------0--3-------3-----------3/5----3----0-------------------|
G|----0h2--------0---------0---0------------------2--0------------|
D|--0--------------0---------0--------0----0----0----0------------|
A|-3--3---------2--------2--------0------0----2---2---------------|
E|----------------------------------------------------------------|
     C
e|------------------------------323/5---323--2p0-----0------------|
B|----------1------0------------------------------3----3-1-0------|
G|---0---0-----0-----0----------------------------------------2---|
D|--2-------2----------0---0-----------------0---------0----------|
A|-3---3-----------2-----2----0-----------------------------------|
E|----------------------------------------------------------------|

then repeat the chorus once or twice, what ever you wanna do, this is my first tab so its 
out a little funny but this is the real live version so /=slide   p=pull off   h=hammer 
and questions e-mail me at ikeman1156@yahoo.com, thanks.
Suggest correction
comments
print report bad tab
2 comments total.
0 reply
Canadian Rocker 30 wrote on September 8 2011, 01:52 pm

Remember to put the capo on the 3rd fret.

0 reply
Deathro 67 wrote on September 8 2011, 03:06 pm

Ohh yes! Thank you! I completely forgot.

guest
You may want to rate the tab now too:
select rating
Wanna post a correction for this tab? Suggest correction