Oops, an error
Loading. Please wait.

Landslide Tab

version 1
version 1

Solo

Whole song

Interactive

40,222 views 102 this week
3 commentsread comments
1 2 3 4 5
x 10
add to favorites
launch autoscroll
font size
0
reset
how to read this tab
guitar tuner
Autoscroll
slow
fast
+/-
esc
set tempo
stop
Help us to improve Ultimate-Guitar.com Take our survey!
×
Author
Capo
3rd fret
-------------------------------------------------------------------------------
                             LANDSLIDE - Fleetwood Mac
-------------------------------------------------------------------------------
Tabbed by: Eleanor Mehlenbacher
Email: edare9439@gmail.com

Acoustic solo tab from David Finch's version on Youtube. 
Tuning: standard, capo 3

[Solo]
e|--------------------------------------------------------------------------|
B|--------------0---3---------3------3/5-------3----------------------------|
G|------0--0-2------------0-------0----------------0-0h2-0------------------|
D|----2--2--------------0-------0-----------0----0--------------------------|
A|--3---------------2-------2--------0----0----0-----2----------------------|
E|--------------------------------------------------------------------------|

e|--------------------------------------------------------------------------|
B|---------------------------0--------------1----1p0-----3-----1----0-------|
G|------0-------0h2-0---0--------0-------0----------0-------------0---------|
D|----2-----2------------------0-------0---------------------0--------------|
A|--3-----3---3-------2---2--------0h2-------0--0-------2-------2-----------|
E|--------------------------------------------------------------------------|

e|--------------------------------------------------------------------------|
B|--------------0-3-----------3-----3/5------3------0-----------------------|
G|------0---0-2-------0---0-------0-------0------0------0-0h2-0-------------|
D|----2-----------------0-------0-------0------0------0---------------------|
A|--3-----3---------2-------2-------0--------0------2-----2-----------------|
E|--------------------------------------------------------------------------|

e|-------------------------3-----------3-2-3-5-3-2-3-2-0---------------3----|
B|--------------1p0-0-------------------------------------3-5-3--------0----|
G|------0-------------0-------0---0-----------------------------5-4-2--0----|
D|----2-----2-----------0---0---0--------------------------------------0----|
A|--3-----3---3-----2-----2---------0----------------------------------2----|
E|---------------------------------------------------------------------3----|
 
 

************************************

| /  Slide up
| h  Hammer-on
| p  Pull-off 

************************************
Suggest correction
comments
print report bad tab
3 comments total.
0 reply
abelko12 10 May 22, 2012 03:56 AM

Awesome! I was gonna tab out that video myself til i saw this. Thanks. Heres the link for youtube video for those that are wondering.
http://www.youtube.com/watch?v=aVNNaWaJN9I&feature=related

+1 reply
Acoustic falls 10 Feb 08, 2013 09:47 PM

Thank you for the tab. I'm really surprised to only see two tabs for the solo on here?

+1 reply
379767 10 Nov 24, 2013 11:00 AM

Great Tab
adde hammer on and pull offs
E|-3-2-3h5-3-2-3-2p0---------------
B|-------------------3-5-3---------
G|-------------------------5-4-2-0-
D|---------------------------------
A|---------------------------------
E|---------------------------------

guest
You may want to rate the tab now too:
select rating
Wanna post a correction for this tab? Suggest correction