Oops, an error
Loading. Please wait.

Little Lies Bass Tab

version 1
version 1

Whole song

Interactive

5,610 views 21 this week
no commentswrite comment
1 2 3 4 5
please rate
add to favorites
launch autoscroll
font size
0
reset
guitar tuner
Autoscroll
slow
fast
+/-
esc
set tempo
stop
Help us to improve Ultimate-Guitar.com Take our survey!
×
Author
All Verses 

G------------------------------------------------------------------------| 
D-3-4-4-44-3-4-4-44-3-4-4-44---------------------------------------------| 
A----------------------------6-7-7-77-4-5-5-55-4-5-5-55-4-5-5-55-6-7-7-7-|  
E------------------------------------------------------------------------| 

Repeat this line above for each verse. 

All Choruses 

G----------------------------------| 
D-34-4444--------------------------| 
A---------67-7777-45-5555-67--77-7-|
E----------------------------------| Repeat this for every chorus but outro. 

Outro Chorus 

G--------------------------------------| 
D-4444444--------------------------765-|
A---------67777777-45555555-677777-----| 
E--------------------------------------| 

Play this after second Chorus at 2:03 

G------------|
D------------| x8 
A-5--5-7--7--|
E------------| 
Suggest correction
Give kudos to tab author, rate the tab!
1 2 3 4 5
comments
print report bad tab
guest
You may want to rate the tab now too:
select rating
Wanna post a correction for this tab? Suggest correction