Oops, an error
Loading. Please wait.

Little Lies Tab

version 1
version 1

Intro

Interactive

11,897 views 1 this week
1 commentread comment
1 2 3 4 5
x 4
add to favorites
launch autoscroll
font size
0
reset
how to read this tab
guitar tuner
Autoscroll
slow
fast
+/-
esc
set tempo
stop
Help us to improve Ultimate-Guitar.com Take our survey!
×
Author
(standard tuning)

this intro isnt played on a guitar in the song, but if you want to play it on guitar 
this is how. i'm 98% sure its right.

E----------12---------------------12--14--17--14--12---------------------|
B--14--12-----14--12--14------14----------------------14--12--14--12-----|
G---------------------------------------------------------------------14-|
D------------------------------------------------------------------------|
A------------------------------------------------------------------------|
E------------------------------------------------------------------------|


E------------------12--------------------12--14--14--21--21--21--21-|
B--12--14--14--12-----14--12--14-----14-----------------------------|
G-------------------------------------------------------------------|
D-------------------------------------------------------------------|
A-------------------------------------------------------------------|
E-------------------------------------------------------------------|
Suggest correction
comments
print report bad tab
1 comment total.
0 reply
guitar-star 10 Jan 05, 2008 06:39 AM

i told my dad there was no guitar

guest
You may want to rate the tab now too:
select rating
Wanna post a correction for this tab? Suggest correction