Oops, an error
Loading. Please wait.

Merry Go Round Bass Tab

version 1
version 1

Whole song

Interactive

660 views 3 this week
no commentswrite comment
1 2 3 4 5
please rate
add to favorites
launch autoscroll
font size
0
reset
guitar tuner
Autoscroll
slow
fast
+/-
esc
set tempo
stop
Help us to improve Ultimate-Guitar.com Take our survey!
×
Difficulty
intermediate
Merry Go Round - Fleetwood Mac
-----------------------------------------------------------------
Tuning: E A D G

G|--------------------------------------------|
D|5-----5-----5-----5---5-3-----3-----3-----3-|
A|----5-----5-----5---5-------3-----3-----3---|
E|--------------------------------------------|

G|----------------------------------------------------|
D|----------2---2-3---3-4---4-5-5-5-5-5-5-5-5-5-5-----|
A|0-2-3---3---------------------------------------0-2-|
E|----------------------------------------------------|

G|------------------3-2---------------------------|
D|------2---2-5---5-----5-3---3-------------1-0---|
A|3---3-------------------------0---0-3---3-----4-|
E|------------------------------------------------|

G|------------------3-2---------------------3-2---------------------------|
D|------2---2-5---5-----5-------2---2-5---5-----5-3---------3-4---------4-|
A|3---3-------------------3---3---------------------------3-----------4---|
E|------------------------------------------------------------------------|

G|------------------------------------------3-2---------------------------|
D|3---3-1---1-0---0-------------2---2-5---5-----5-------2---2-5---5-2-3-4-|
A|------------------4---4-3---3-------------------3---3-------------------|
E|------------------------------------------------------------------------|

G|------------------------------------------------------------------|
D|5---5-------------3-2-0-3---3-1---1-0---0-------------------------|
A|------2---2-5---5-------------------------4---4-3---3-1---1-0---0-|
E|------------------------------------------------------------------|

G|------------------------------------------------3-2-----------------------|
D|6---6-5-5-5-5-5-5-5-5-5-------------2---2-5---5----5-3---3------------1-0-|
A|------------------------6-5-4-3---3------------------------0---0-3--3----4|
E|--------------------------------------------------------------------------|

G|------------------3-2-----------------------------------------------------|
D|------2---2-5---5-----5---------------2-5---2-5-3---------3-4---------4-3-|
A|3---3-------------------3-3-3-3-3-3-3-----3-------------3-----------------|
E|--------------------------------------------------------------------------|

G|--------------------------------3-2---------------------------|
D|------------0-------2---2-5---5-----5-------2---2-5---5-2-3-4-|
A|0-3-----------3---3-------------------3---3-------------------|
E|--------------------------------------------------------------|

G|------------------------------------------------------------------------|
D|5---5-------------3-2-0-3---3-1---1-0---0-------------2---2-------6---6-|
A|------2---2-5---5-------------------------4---4-3---3-------0---0-------|
E|------------------------------------------------------------------------|

G|------------------------------------------------------------------------|
D|5-5-5-3-3-3-1-1-1---------------------------2-5-3---3-------------1-0---|
A|------------------5-5-4-3-3-3-3-3-3-3-3-3-3-----------0---0-3---3-----4-|
E|------------------------------------------------------------------------|

G|------------------3-2-3-5-5-5-3-3-3-2-2-2-------------------------------|
D|------2---2-5---5-------------------------5-5-4-3---3-3---3-4---4-4---4-|
A|3---3---------------------------------------------3-----3-----4-----4---|
E|------------------------------------------------------------------------|

G|------------------------------------------3-2-0-------------------------|
D|3---3-1---1-0---0-------------2---2-5---5-------------2---2-5---5-2-3-4-|
A|------------------4---4-3---3-------------------3---3-------------------|
E|------------------------------------------------------------------------|

G|--------------------------------------------------------------------------|
D|5-----5-----5-----5---5-3----3-1----1-0---0---------------2-5-3---3-4---4-|
A|----5-----5-----5---5-----------------------4---4-3-----3-----------------|
E|--------------------------------------------------------------------------|

G|------------------------------------------3-2---------------------------|
D|5-5-5-5-5-5-5-5-5-5-----------2---2-5---5-----5-3---3-------------1-0---|
A|--------------------7-5-3---3-------------------------0---0-3---3-----4-|
E|------------------------------------------------------------------------|

G|------------------3-2-3-5-5-5-3-3-3-2-2-2------------------------------|
D|------2---2-5---5-------------------------5-5-4-3---3-3---3-4---4-4--4-|
A|3---3---------------------------------------------3-----3-----4-----4--|
E|-----------------------------------------------------------------------|

G|------------------------------------------3-2---------------------------|
D|3---3-1---1-0---0-------------2---2-5---5-----5-------2-2-2-3-3-3-4-4-4-|
A|------------------4---4-3---3-------------------3-3-3-------------------|
E|------------------------------------------------------------------------|

G|--------------------------------------------------------------------------|
D|5---5-------------3-2-0-3---3-1---1-0---0-------------2---2-3---3-4---4-5-|
A|------2---2-5---5-------------------------4---4-3-3-3---3-----3-----3-----|
E|--------------------------------------------------------------------------|

| /  slide up
| \  slide down
| h  hammer-on
| p  pull-off
| ~  vibrato
| +  harmonic
| x  Mute note
comments
We did not receive enough feedback on this tab! Please rate:
print report bad tab
1 2 3 4 5
I want to post or [tab]
guest
You may want to rate the tab now too:
select rating
Please do not post tabs as comments. Select "correction" instead!