Oops, an error
Loading. Please wait.

Miranda Bass Tab

189 views 1 this week
no commentswrite comment
1 2 3 4 5
please rate
add to favorites
launch autoscroll
font size
0
reset
guitar tuner
Autoscroll
slow
fast
+/-
esc
set tempo
stop
Help us to improve Ultimate-Guitar.com Take our survey!
×
Contributor
 SONG NAME - Miranda 
-------------------------------------------------------------------------------
Tabbed by: Mike Kunz            
E-mail: rmjk21@embarqmail.com

Tuning:

 Intro Guitar: 
  
G|----------------|----------------|----------------|---------------|
D|----------------|----------------|----------------|---------------|
A|----------------|----------------|----------------|---------------|
E|----------------|----------------|----------------|---------------|

  Verse 1
  
G|----------------|----------------|----------------|---------------|
D|----------------|----------------|----------------|---------------|
A|----------------|----------------|----------------|-------\9------|
E|----------------|----------------|----------------|----------11-9-|
 
 at the end of the day, end of the light,

G|----------------|----------------|----------------|---------------|
D|----------------|----------------|----------------|---------------|
A|----------------|----------------|----------------|---------------|
E|-2--------2-----|---2--------2---|---2-22--2-22--2|-22--2-22--2-22|
  
 she sticks a camera right into her arm
  
  
  Chorus
  
G|----------------|----------------|-----------------|-----------------|
D|----------------|----------------|-----------------|-----------------|
A|----------------|----------------|-----------------|-----------------|
E|-2-22--2-22--2-2|2--2-22--2-22--2|-22--2-22--2-22--|2-22--2-22--2-22-|
  
  Miranda is taking 

  
  Little Interlude

G|----------------|----------------|
D|----------------|----------------|
A|----------------|--------\9------|
E|-2-22--2-22--2-2|2--2-22----11-9-|



 Verse 2  

G|----------------|----------------|-----------------|-------------------|
D|----------------|----------------|-----------------|-------------------|
A|----------------|----------------|-----------------|-----------\9------|
E|-2-22--2-22--2-2|2--2-22--2-22--2|-22--2-22--2-22--|2-22--2-22----11-9-|


 Interlude 2 
  
G|----------------|----------------|-----------------|------------------|
D|----------------|----------------|-----------------|------------------|
A|----------------|--------\9------|-----------------|----------\9------|
E|-2-22--2-22--2-2|2--2-22----11-9-|-2-22--2-22--2-22|--2-22--2----11-9-|

G|----------------|----------------|-----------------|-------------------|
D|----------------|----------------|-----------------|-------------------|
A|----------------|----------------|-----------------|-----------\9------|
E|-2-22--2-22--2-2|2--2-22--2-22--2|-22--2-22--2-22--|2-22--2-22----11-9-|

        
 Verse 3

G|----------------|----------------|-----------------|------------------|
D|----------------|----------------|-----------------|------------------|
A|----------------|----------------|-----------------|------------------|
E|----------------|----------------|-2-----------2---|------------------|

  
  Outro

G|----------------|----------------|-----------------|------------------|
D|----------------|----------------|-----------------|------------------|
A|----------------|----------------|-----------------|------------------|
E|-2-22--2-22--2-2|2--2-22--2-22--2|-22--2-22--2-22--|2--22--2-22--2-22-|

 Miranda is always alone
 
G|----------------|----------------|-----------------|------------------|
D|----------------|----------------|-----------------|------------------|
A|----------------|----------------|-----------------|------------------|
E|-2-22--2-22--2-2|2-22--2-22--2-22|--2-22--2-22--2-2|2--2-22--2-22--2-2|


G|----------------|----------------|-----------------|------------------|
D|----------------|----------------|-----------------|------------------|
A|----------------|----------------|-----------------|------------------|
E|2--2-22--2-22--2|-22--2-22--2-22-|-2-22--2-22--2-22|--2-22--2-22--2-22|


G|----------------|----------------|------------------|-----------------|
D|----------------|----------------|------------------|-----------------|
A|----------------|----------------|----------\9------|-----------------|
E|--2-22--2-22--2-|22--2-22-2-22--2|-22--2-22----11-9-|2-22--2-22--2-22-|

  Repeat,Fade



  intro
  verse 1
  chorus
  little interlude 
  verse 2
  chorus 
  interlude 2
  verse 3
  chorus
  chorus  
  outro


===============================================================================
comments
We did not receive enough feedback on this tab! Please rate:
print report bad tab
1 2 3 4 5
I want to post or [tab]
guest
You may want to rate the tab now too:
select rating
Please do not post tabs as comments. Select "correction" instead!