Oops, an error
Loading. Please wait.

Miranda Tab

993 views 1 this week
no commentswrite comment
1 2 3 4 5
2 more votes to show rating
add to favorites
launch autoscroll
font size
0
reset
how to read this tab
guitar tuner
Autoscroll
slow
fast
+/-
esc
set tempo
stop
Help us to improve Ultimate-Guitar.com Take our survey!
×
Author
Difficulty
novice
Miranda Intro Tab
Album - Say You Will

It's a -capo at the 8th fret- in standard tuning and it's just this 
repeated over and over. If you have already been into Buckingham's 
Big Love song it's very easy. This Tab is not mine I found it on 
the internet (you can sue me) I hope you like it and enjoy it 
because you probably won't find an other one around. 



|---------------------------------|-------------------------|
|---------------------------------|-------------------------|
|---------2---------------0-------|---------2-------2-0-2---|
|-0h2-------------0h2-------------|-0h2---------------------|
|-0----0-----0--0-0----0-----0--0-|-0----0-----0--0-0---0-0-|
|---------------------------------|-------------------3-----|


|---------------------------------|-------------------------|
|---------------------------------|-------------------------|
|---------2---------------0-------|---------2-----0-2-------|
|-0h2-------------0h2-------------|-0h2---------------------|
|-0----0-----0--0-0----0-----0--0-|-0----0-----0----0-0-0-0-|
|---------------------------------|---------------3---------|
Suggest correction
Give kudos to tab author, rate the tab!
1 2 3 4 5
comments
print report bad tab
guest
You may want to rate the tab now too:
select rating
Wanna post a correction for this tab? Suggest correction