Oops, an error
Loading. Please wait.

Miss Fantasy Bass Tab

version 1
version 1

Whole song

Interactive

99 views 1 this week
no commentswrite comment
1 2 3 4 5
please rate
add to favorites
launch autoscroll
font size
0
reset
guitar tuner
Autoscroll
slow
fast
+/-
esc
set tempo
stop
Help us to improve Ultimate-Guitar.com Take our survey!
×
-------------------------------------------------------------------------------
                             Miss Fantasy - Fleetwood Mac
-------------------------------------------------------------------------------
Tabbed by: Mike Kunz
E-mail: rmjk21@embarqmail.com

  ( intro )                                       I had another dream           
G|------------------|-----------------------------------------------------------------|
D|------------------|-----------------------------------------------------------------|
A|------------------|-----------------------------------------------------------------|
E|------------------|-3-33-33-33333-3-33-33-33333-3-33-33-33333-3-33-33-33333-3-33-33-|
                     
                                         Ms Fantasy 
G|------------------------------------------------------------------------------------|
D|------------------------------------------------------------------------------------|
A|---------------\101097-3-33-5-55------\7-77-7-3-33-5-55-----------------------------|
E|-33333-3-33-33-------------------3-33-------------------3-33-33-33333-3-33-33-33333-|

  In between the shadow
G|-----------------------------------------------------------------------------------|
D|-----------------------------------------------------------------------------------|
A|---------------------------------------------------\101097-3-33-5-55--------7-77-7-|
E|-3-33-33-33333-3-33-33-33333-3-33-33-33333-3-33-33-------------------3-33-3--------|

  I remember you
G|---------------------------|------------------------------------------------------------|
D|---------------------------|------------------------------------------------------------|
A|-3-33-5-5-55---------------|3-33-5-55------7-77-7-3-33-5-55-----------------------------|
E|-------------3-33-33-33333-|----------3-33------------------3-33-33-33333-3-33-33-33333-|


  tremble when I fall
G|-----------------------------|---------------------------------------------------|
D|-----------------------------|---------------------------------------------------|
A|-----------------------------|-----------5-55-5-55-5-----------------------------|
E|-3-33-33-33333-3-33-33-33333-|5-55-55-55-------------3-33-33-33333-3-33-33-33333-|


  On with the show-
G|---------------------------|--------------------------------------------------|
D|---------------------------|--------------------------------------------------|
A|-------------5-55-55-55555-|--------------------------------------------------|
E|-5-55-55-55----------------|3-33-33-33333-3-33-33-33333-3-33-33-33333-3-33-33-|

         Ms Fantasy     
G|-------------------------------------------------------|
D|-------------------------------------------------------|
A|-\101097-3-33-5-55------7-77-7-3-33-5-55---------------|
E|-------------------3-33------------------3-33-33-33333-|

  Ms Fantasy 
G|--------------------------------------------------------------------------------|
D|------------\76-5-55------------------------------------------------------------|
A|-3-33-5-55-5---------7-77-7-3-33-5-55-------------------------------------------|
E|--------------------------------------3-33-33-33333-3-33-33-33333-3-33-33-33333-|

  I remember you
G|-----------------------------------------------------------------------|
D|-----------------------------------------------------------------------|
A|-----------------------------------------------------------------------|
E|-3-33-33-33333-3-33-33-33333-3-33-33-33333-3-33-33-33333-3-33-33-33333-|


  ( outro )  ( fade )
G|-------------------------------------------|
D|-------------------------------------------|
A|-------------------------------------------|
E|-3-33-33-33333-3-33-33-33333-3-33-33-33333-|

Suggest correction
Give kudos to tab author, rate the tab!
1 2 3 4 5
comments
print report bad tab
guest
You may want to rate the tab now too:
select rating
Please do not post tabs as comments. Select "correction" instead!