Oops, an error
Loading. Please wait.

Motion Bass Tab

243 views 1 this week
no commentswrite comment
1 2 3 4 5
please rate
add to favorites
launch autoscroll
font size
0
reset
guitar tuner
Autoscroll
slow
fast
+/-
esc
set tempo
stop
Help us to improve Ultimate-Guitar.com Take our survey!
×
Author
Difficulty
novice
----------------------------------------------------|
----------------------------------------------------|
--0--0--2--3--2--0---0--2---------------------------| }repeat a few times
-------------------3-------0------------------------|

----------------------------------------------------|
----------------------------------------------------|
--0--0--2--3--2--0---0--2---------------------------|
-------------------3-------0----02020---------------|

Just basically repeat that thru the whole song, but listen to see how the speed of the 
changes...
this is my first ever tab, hope you like it
later skaters
<3
kay*tee
Suggest correction
Give kudos to tab author, rate the tab!
1 2 3 4 5
comments
print report bad tab
guest
You may want to rate the tab now too:
select rating
Please do not post tabs as comments. Select "correction" instead!