Oops, an error
Loading. Please wait.

Never Going Back Again Tab

version 2
version 2

Whole song

56,437 views 168 this week
2 commentsread comments
1 2 3 4 5
x 6
add to favorites
launch autoscroll
font size
0
reset
how to read this tab
guitar tuner
Autoscroll
slow
fast
+/-
esc
set tempo
stop
Help us to improve Ultimate-Guitar.com Take our survey!
×
Author
Tuning
Capo
D A D G B E
4th fret
Tuning: drop low E to D
Capo on fourth fret

[Сhords]
D(1)      (0)04235
A7(1)     (x)02020
A7/13(1)  (x)05252
A7/13(2)  (x)07070
D(2)      (0)0777d
A7(2)     (x)07989 
Dsus2     (0)077ad 
Bm        (x)24432
F#m7      (4)42222
A         (x)02225

[Intro] 
(lines) 
   D(1)        A7(1)                     A7(1) A7/13(1) 
                 D(1)                              D(1)    
E|---------------------5-----5-------------------------5-----5------|
B|-----3-------2/3-------3-----3-------3/2-----5---3-----3-----3----|
G|-------------------2-----2-----2-------------------2-----2-----2--|
D|-----4-------2/4-----4-------4-------4/2-----5-------4-------4----|
A|---------0---------------0---------------0---------------0--------|
D|-0---------------0---------------0---------------0----------------|

   A7/13(2)                        D(1)  A7/13(1)  D(1)
                                           A7/13(2)  
E|---0-----0-----0-----0-----0---------------------------5----------|
B|-7-----7-----7-----7-----7-----7-3-----5/7---5---3-------------3--|
G|-----0-------0-------0-------0-----2---------------2-------2------|
D|-----------7-----------7-------------4-5/7---5-------4-------4----|
A|-0-------0-------0-------0---------------0---------------0--------|
D|---------------------------------0---------------0----------------|
            
[Chorus/Instrumental chorus]
   D(2)    A7(3)   Dsus2               D(2)        Dsus2
                                           A7(2)   
E|-----10----9-----10----10----10------10--9-9-----10----10----10---|
B|-------7-----------10----10----10------7---8-------10----10----10-|
G|---------------7-----7-----7-----7-------------7-----7-----7------|
D|-----7-------7-------7-------7-------7-------7-------7-------7----|
A|---------0---------------0---------------0---------------0--------|
D|-0---------------0---------------0---------------0----------------|
   
   D(2)    A7(3)   Dsus2           Bm      F#m7    Bm          A7(1)
                                                     A           D(1)
E|-----10----9-----10----10----10----------------------5------------|
B|---7---7-----------10----10----------3-----2-----3-----------2/3--|
G|-7-------------7-----7-----7-------------------2------------------|
D|-----7-------7-------7---------7-----4-------2---4-2---------2/4--|
A|---------0---------------0-------2---------------0-------0--------|
D|-0---------------0-----------------------4------------------------|

[Instrumental]
   D(1)        A7(1)                     A7(1) A7/13(1) 
                 D(1)                              D(1)    
E|---------------------5-----5-------------------------5------------|
B|-----3-------2/3-------3-----3-------3-------2/3-3-----3----------|
G|-------------------2-----2-----2-------------------2-------2------|
D|-----4-------2/4-----4-------4-------4-------2/4-----4-------4----|
A|---------0---------------0---------------0---------------0--------|
D|-0---------------0---------------0---------------0----------------|

   A7/13(2)                        D(1)  A7/13(1)  D(1)
                                           A7/13(2)  
E|---0-----0-----0-----0-----0---------------------------5----------|
B|-7-----7-----7-----7-----7-----7-3-----5/7---5---3-------------3--|
G|-----0-------0-------0-------0-----2---------------2-------2------|
D|-----------7-----------7-------------4-5/7---5-------4-------4----|
A|-0-------0-------0-------0---------------0---------------0--------|
D|---------------------------------0---------------0----------------|

[Instrumental]
   D(1)        A7(1)                     A7(1) A7/13(1) 
                 D(1)                              D(1)    
E|---------------------5-----5-------------------------5-----5------|
B|-----3-------2/3-------3-----3-------3/2-----5---3-----3-----3----|
G|-------------------2-----2-----2-------------------2-----2-----2--|
D|-----4-------2/4-----4-------4-------4/2-----5-------4-------4----|
A|---------0---------------0---------------0---------------0--------|
D|-0---------------0---------------0---------------0----------------|

[Instrumental chorus]
   D(2)    A7(3)   Dsus2           Bm      F#m7    Bm          A7(1)
                                                     A           D(1)
E|-----10----9-----10----10----10----------------------5------------|
B|---7---7-----------10----10----------3-----2-----3-----------2/3--|
G|-7-------------7-----7-----7-------------------2------------------|
D|-----7-------7-------7---------7-----4-------2---4-2---------2/4--|
A|---------0---------------0-------2---------------0-------0--------|
D|-0---------------0-----------------------4------------------------|


[Outro]
   D(1)        A7(1)                     A7(1) A7/13(1) 
                 D(1)                              D(1)    
E|---------------------5-----5-------------------------5-----5------|
B|-----3-------2/3-------3-----3-------3/2-----5---3-----3-----3----|
G|-------------------2-----2-----2-------------------2-----2-----2--|
D|-----4-------2/4-----4-------4-------4/2-----5-------4-------4----|
A|---------0---------------0---------------0---------------0--------|
D|-0---------------0---------------0---------------0----------------|

   A7/13(2)                        D(1)  A7/13(1)  D(1)
                                           A7/13(2)  
E|---0-----0-----0-----0-----0---------------------x----------------|
B|-7-----7-----7-----7-----7-----7-3-----5/7---5---3----------------|
G|-----0-------0-------0-------0-----2-------------2----------------|
D|-----------7-----------7-------------4-5/7---5---4----------------|
A|-0-------0-------0-------0---------------0-------0----------------|
D|---------------------------------0---------------0----------------|

************************************

| /  Slide up
| x  Dead note

************************************
Suggest correction
comments
print report bad tab
2 comments total.
-1 reply
workhorsemo 10 Aug 22, 2010 03:23 AM

how do i play notes 0 and 3 etc. with a capo on the fourth fret?

0 reply
Megadeth77 20 Oct 25, 2010 08:32 PM

The Capo is now the new open, or 0 if you will.
So its like taking the nut down to whatever fret you want, and that begins the open string. So if the capo is on the 4th like here, then the 4th fret becomes the open string or 0, and then you go to 1, 2, 3 ect like normal.

guest
You may want to rate the tab now too:
select rating
Wanna post a correction for this tab? Suggest correction