Oops, an error
Loading. Please wait.

Never Going Back Again Tab

version 5
version 5

Whole song

12,460 views 90 this week
no commentswrite comment
1 2 3 4 5
excellent!
x 8
add to favorites
launch autoscroll
font size
0
reset
how to read this tab
guitar tuner
Autoscroll
slow
fast
+/-
esc
set tempo
stop
Help us to improve Ultimate-Guitar.com Take our survey!
×
Author
Song: Never Going Back Again
Band: Fleetwood Mac
Album: Rumours
Tabbed by: Peter Cappaert (pjcappaert@gmail.com
Tab Credits: Daniel Thomas (dt_69er@hotmail.com), Peter Tuyp(peter.tuyp@wxs.nl)
Tuning: D A D G B E (dropped D)
Capo: on the 4th fret

This is basically Daniel Thomas's version which I edited to fix what I saw as 
inaccuracies/errors, adjusted the formatting,
and added the optional way of playing the 3rd line of the verse from Peter Tuyp's version.

Verse riff:
e|-----------------|-----5-----5-----|
B|-----3-------2/3-|-------3-----3---|
G|-----------------|---2-----2-----2-|
D|-----4-------2/4-|-----4-------4---|
A|---------0-------|---------0-------|
D|-0---------------|-0---------------|

e|-----------------|-----5-----5-----|
B|-----3/2-----5---|-3-----3-----3---|
G|-----------------|---2-----2-----2-|
D|-----4/2-----5---|-----4-------4---|
A|---------0-------|---------0-------|
D|-0---------------|-0---------------|

e|-2-----2-----2---|---2-----2-----2-|    |---0-----0-----0-|-----0-----0-----|
B|---5-----5-----5-|-----5-----5-----|    |-7-----7-----7---|---7-----7-----7-|
G|-----2-----2-----|-2-----2-----2---| OR |-----0-------0---|-----0-------0---|
D|-----5-------5---|-----5-------5---|    |-----7-----7-----|-7-----7-----7---|
A|-0-------0-------|-0-------0-------|    |-0-------0-------|-0-------0-------|
D|-----------------|-----------------|    |-----------------|-----------------|

e|-----------------|-------5---------|
B|-3-----5/7---5---|-3-------------3-|
G|---2-------------|-----------2-----|
D|-----4-5/7---5---|-4---4-------4---|
A|---------0-------|---------0-------|
D|-0---------------|-0---------------|


Chorus riff:
e|-----10----9-----|-10----10----10--|
B|-----------------|---10----10----10|
G|---------------7-|-----7-----7-----|
D|-----7-------7---|-----7-------7---|
A|---------0-------|---------0-------|
D|-0---------------|-0---------------|

e|-----10--9-------|-10----10----10--|
B|-----------8-----|---10----10----10|
G|-7-------------7-|-----7-----7-----|
D|-----7-------7---|-----7-------7---|
A|---------0-------|---------0-------|
D|-0---------------|-0---------------|

e|-----10----9-----|-10----10----10--|
B|-----------------|---10----10------|
G|-7-------------7-|-----7-----7-----|
D|-----7-------7---|-----7-------7---|
A|---------0-------|---------0-------|
D|-0---------------|-0---------------|

e|-----------------|-------5---------|
B|-----3-----2-----|-3-----------2/3-|
G|-----------2---2-|-----------------|
D|-----4-------2---|-----2-------2/4-|
A|-2---------------|-2p0-----0-------|
D|---------4-------|-----------------|

Lyrics:
VERSE 1
She broke down and let me in
Made me see where I've been

CHORUS
Been down one time
Been down two times
I'm never going back again

VERSE 2
You don't know what it means to win
Come down and see me again

CHORUS again
Suggest correction
comments
print report bad tab
guest
You may want to rate the tab now too:
select rating
Please do not post tabs as comments. Select "correction" instead!