Oops, an error
Loading. Please wait.

Never Going Back Again tab

version 6
version 6

Whole song

8,215 views 102 this week
no commentswrite comment
1 2 3 4 5
x 5
add to favorites
×
Save as Personal and add changes to this tab that will be seen only by you. Learn more ›
×
You can save this tab as Personal to edit and correct it or add notes. All changes will be seen only by you. Learn more »
launch autoscroll
font size
0
reset
how to read this tab
guitar tuner
edit
Autoscroll
slow
fast
+/-
esc
set tempo
stop
Author
Difficulty
About this tab version
Playing the other available versions of Never Going Back again often involve cumbersome alternate tunings that can be time-consuming to implement. This particular arrangement is, to my knowledge, more intricate than the few available in standard tuning. It is truer both to the original studio recording and the possible spontaneity of live performances of the song (hence an arrangement of the bridge solo Lindsey Buckingham usually plays in live performances of "Never Going Back Again" arranged for standard tuning), and does so all within the reach of standard guitar tuning. Was this info helpful? Yes No
Never Going Back Again - Fleetwood Mac
Tabbed by: H. Smith
E-mail: Nup1995@gmail.com
Tuning: Standard (Capo VI)

[Song Progression]
[Intro]
[Verse I]
[Chorus]
[Instrumental Bridge]
[Verse II]
[Chorus]
[Outro]

[Intro]
e|-----------------------------------3---------------------------------------|
B|-----1--------0-h1--------1-----------1-----------1-p0--------3------------|
G|--------------0--------------0-----------0--------0-----------0------------|
D|-----2-----0----h2-----2-----------------------2----p0-----0---------------|
A|--3-----------------3-----------------------3------------------------------|
E|--------3-----------------------3-----------------------3------------------|

e|-----------3--------------0--------0--------0--------0--------0--------0---|
B|--1--------------1-----------3--------3--------3--------3--------3---------|
G|-----0--------------0-----------0--------0--------0--------0--------0------|
D|--------2--------------2//3-----3-----------3-----------3-----------3------|
A|--3------------------------------------------------------------------------|
E|--------------3-----------3-----------3-----------3-----------3------------|
                            T           T           T           T

e|-----------------------------3---------------------------------------------|
B|--1--------3//5--3//1--------------------1---------------------------------|
G|-----0-----0-----0-----0-----------0---------------------------------------|
D|--------2-----------------2-----------2------------------------------------|
A|--3-----------------3------------------------------------------------------|
E|--------------3--3--------------3------------------------------------------|
                T  T

[Verse]
e|--------------------3--------3-----------3---------------------------------|
B|-----1--------0-h1-----1-----------1--------------1-p0--------3------------|
G|--------------0-----------0-----------0-----------0-----------0------------|
D|-----2-----0----h2-----------------------------2----p0-----0-----0---------|
A|--3-----------------3-----------------------3------------------------------|
E|--------3-----------------------3-----------------------3------------------|
(I.  She broke down and let me in…)
(II. You don’t know what it means to win…)

e|--3--------------------------0--------0--------0--------0------------------|
B|--------1-----------------------3--------3--------3--------3---------------|
G|--------------0-----------0--------0--------0--------0--------0------------|
D|-----2-----------2//3--------3-----------3-----------3-----------3---------|
A|--3------------------------------------------------------------------------|
E|-----------3-----------3-----------3-----------3-----------3---------------|
                         T           T           T           T

e|-----------------------------3---------------------------------------------|
B|--0-h1--------3//5--3--1--------------0-h1---------------------------------|
G|--0-----0-----0-----0-----0-----------0------------------------------------|
D|-----------2-----------------------0----h2---------------------------------|
A|-----3-----------------3---------------------------------------------------|
E|-----------------3--3-----------3------------------------------------------|
                   T  T

e|-----------------------3--------3------------------------------------------|
B|-----1--------0--1--------1--------1-----------1-p0--------3---------------|
G|--------------0-----0-----------------0--------0-----------0---------------|
D|-----2-----0--------------------------------2----p0-----0------------------|
A|--3--------------3-----------------------3---------------------------------|
E|--------3--------------------3-----------------------3---------------------|
  T
(I.  Made me see where I’ve been…)
(II. Come down and see me again…)

e|--------3-----------3--0--------0--------0--------0--------0--------0------|
B|--1-----------------------3--------3--------3--------3--------3------------|
G|-----0--------0--------------0--------0--------0--------0--------0---------|
D|-----------------0-----------3-----------3-----------3-----------3---------|
A|--3------------------------------------------------------------------------|
E|-----------3-----------3-----------3-----------3-----------3---------------|
             T           T           T           T           T

e|--------------------3-----3--------3---------------------------------------|
B|--1--------3//5--3--1--------1-----------1//////---------------------------|
G|-----0-----0-----0-----0--------0-----0------------------------------------|
D|--------2------------------------------------------------------------------|
A|--3-----------------3------------------------------------------------------|
E|--------------3--3-----------3---------------------------------------------|
                T  T

[Chorus]
e|-----8-----7--------8--------8-----------8--------8--------7---------------|
B|-----5-----------6-----5-----------5-----------------5--------6------------|
G|-----5--------7-----------5-----------5--------5-----------------7---------|
D|--------5-----------------------5-----------------------5------------------|
A|---------------------------------------------------------------------------|
E|--8-----------------8-----------------------8------------------------------|
    T                 T                       T
      Been down one time…

e|--8--------8-----------8--------8-----7-----------8--------8-----------8---|
B|-----5-----------5--------------5--------6-----6-----5-----------5--------5|
G|--------5-----------5--------5-----5--------7-----------5-----------5------|
D|--------------5-----------------------5-----------------------5------------|
A|---------------------------------------------------------------------------|
E|--8-----------------------8-----------------------8------------------------|
    T                       T                       T
      Been down two times…

e|-----------------------------3---------------------------------------------|
B|-----1-----0--------1--------------0----h1---------------------------------|
G|-----2-----------0-----0--------------0------------------------------------|
D|-----2--------2-----------2--------0----h2---------------------------------|
A|--0-----------------3------------------------------------------------------|
E|--------0-----------------------3------------------------------------------|
      And I’m never going back again.

[Instrumental Bridge]
e|--------------------------------3--------3---------------------------------|
B|--------1-p0--------3-----1--------1--------1--------1-p0--------3---------|
G|--------0-----------0--------0-----------------0-----------------0---------|
D|-----2----p0-----0-----0-----------------------------2-p0-----0------------|
A|--3-----------------------3-----------------------3------------------------|
E|--------------3-----------------------3--------------------3---------------|

e|--3--------3-----3-----0--------0--------0--------0--------0--------0------|
B|-----1--------------1//3--3--------3--------3--------3--------3------------|
G|--------0--------------------0--------0--------0--------0--------0---------|
D|-----------------------------3-----------3-----------3-----------3---------|
A|--3------------------------------------------------------------------------|
E|--------------3--------3-----------3-----------3-----------3---------------|
                T        T           T           T           T

e|---------------------------------------------------------------------------|
B|--1--------3//5--3--1--------1-----0----h1---------------------------------|
G|-----0-----0-----0-----0--------------0------------------------------------|
D|--------2-----------------2------------------------------------------------|
A|--3-----------------3------------------------------------------------------|
E|--------------3--3--------------3------------------------------------------|
                T  T

e|--------------------------------3------------------------------------------|
B|-----1-----0-h1--------1-----------0--------1-p0--------3------------------|
G|--------------------------0-----------0-----------------0------------------|
D|-----2-----0-h2-----2-----------------------2-p0-----0-----0---------------|
A|--3--------------3-----------------------3---------------------------------|
E|--------3--------------------3--------------------3------------------------|

e|-----------3--------------------0--------0--------0--------0---------------|
B|--1-----------------0-h1-----------3--------3--------3--------3--------0---|
G|-----0--------------0--------0--------0--------0--------0--------0---------|
D|--------2--------0----h2--------3-----------3-----------3-----------3------|
A|--3------------------------------------------------------------------------|
E|--------------3-----------3-----------3-----------3-----------3------------|
                T           T           T           T           T

e|--------------------3-----------3------------------------------------------|
B|-h1--------3//5--3--------1--------0-h1//////------------------------------|
G|-----0-----0-----0-----0---------------------------------------------------|
D|--------2--------------------2-----0-h2//////------------------------------|
A|--3-----------------3------------------------------------------------------|
E|--------------3--3---------------------------------------------------------|
                T  T

e|-----8-----7--------8--------8-----------8--------8--------7---------------|
B|-----5-----------6-----5-----------5-----------------5--------6------------|
G|-----5--------7-----------5-----------5--------5-----------------7---------|
D|--------5-----------------------5-----------------------5------------------|
A|---------------------------------------------------------------------------|
E|--8-----------------8-----------------------8------------------------------|
    T                 T                       T

e|--8--------8-----------8--------8-----7-----------8--------8-----------8---|
B|-----5-----------5--------------5--------6-----6-----5-----------5--------5|
G|--------5-----------5--------5-----5--------7-----------5-----------5------|
D|--------------5-----------------------5-----------------------5------------|
A|---------------------------------------------------------------------------|
E|--8-----------------------8-----------------------8------------------------|
    T                       T                       T

e|-----------------------------3---------------------------------------------|
B|-----1-----0--------1--------------0----h1---------------------------------|
G|-----2-----------0-----0--------------0------------------------------------|
D|-----2--------2-----------2--------0----h2---------------------------------|
A|--0-----------------3------------------------------------------------------|
E|--------0-----------------------3------------------------------------------|

[Outro]
e|--0--------0--------0--------0--------0--------0---------------------------|
B|-----3--------3--------3--------3--------3--------1--------3//5--3---------|
G|--------0--------0--------0--------0--------0--------0-----0-----0---------|
D|--------3-----------3-----------3-----------3-----------2------------------|
A|--------------------------------------------------3------------------------|
E|--3-----------3-----------3-----------3-----------------------3--3---------|
    T           T           T           T                       T  T

e|--------3-----------------------0--------0--------0--------0---------------|
B|--1--------1-----0----h1-----------3--------3--------3--------3------------|
G|-----0-----------------------0--------0--------0--------0--------0---------|
D|--------------------0-h2--------3-----------3-----------3-----------3------|
A|--3------------------------------------------------------------------------|
E|--------------3-----------3-----------3-----------3-----------3------------|
                T           T           T           T           T

e|---------------------------------------------------------------------------|
B|--1--------3//5--3--1~~~~~-------------------------------------------------|
G|-----0-----0-----0--0------------------------------------------------------|
D|--------2-----------2------------------------------------------------------|
A|--3-----------------3------------------------------------------------------|
E|--------------3--3--3------------------------------------------------------|
                T  T

[Alternate Live Instrumental Bridge with Solo]
e|--0--------0---------------------------------------------------------------|
B|-----1-----------1-----1-h3--------3-----------1--------1-p0---------------|
G|--------0-----------0--------0-----------0--------0-----------0-h2---------|
D|--------------------------------2-----------2--------2--------------0------|
A|--3-----------------------3--------------------3-----------3---------------|
E|--------------3-----------------------3------------------------------------|

e|-----------------------0--------0--------0--------0--------0--------0------|
B|--0--------0--------------3--------3--------3--------3--------3------------|
G|-----0-----------0-----------0--------0--------0--------0--------0---------|
D|--------0-----------2//3-----3-----------3-----------3-----------3---------|
A|---------------------------------------------------------------------------|
E|--3-----------3--------3-----------3-----------3-----------3---------------|
                         T           T           T           T

e|--------------------------------------------0--------0---------------------|
B|-----------3//5--3-----------1--------0-h1-----1-----------1-----1-h3------|
G|-----0--------0--0-----0--------------0-----------0-----------0------------|
D|--------2-----------------2--------0----h2---------------------------------|
A|--3-----------------3-----------------------3-----------------------3------|
E|--------------3--3--------------3-----------------------3------------------|
                T  T

e|---------------------------------------------------------------------------|
B|--------3-----------1--------1-p0-----------0--------0---------------------|
G|--0-----------0--------0-----------0-h2--------0-----------0---------------|
D|-----2-----------2--------2--------------0--------0-----------2//3---------|
A|--------------------3-----------3------------------------------------------|
E|-----------3--------------------------------3-----------3------------------|

e|--0--------0--------0--------0--------0--------0---------------------------|
B|-----3--------3--------3--------3--------3--------1--------3//5--3--1------|
G|--------0--------0--------0--------0--------0--------0-----0-----0--------0|
D|--------3-----------3-----------3-----------3-----------2--------------2---|
A|--------------------------------------------------3-----------------3------|
E|--3-----------3-----------3-----------3-----------------------3--3---------|
    T           T           T           T                       T  T

e|-----8-----7--------8--------8-----------8--------8--------7---------------|
B|-----5-----------6-----5-----------5-----------------5--------6------------|
G|-----5--------7-----------5-----------5--------5-----------------7---------|
D|--------5-----------------------5-----------------------5------------------|
A|---------------------------------------------------------------------------|
E|--8-----------------8-----------------------8------------------------------|
    T                 T                       T

e|--8--------8-----------8--------8-----7-----------8--------8-----------8---|
B|-----5-----------5--------------5--------6-----6-----5-----------5--------5|
G|--------5-----------5--------5-----5--------7-----------5-----------5------|
D|--------------5-----------------------5-----------------------5------------|
A|---------------------------------------------------------------------------|
E|--8-----------------------8-----------------------8------------------------|
    T                       T                       T

e|-----------------------------3---------------------------------------------|
B|-----1-----0--------1--------------0----h1---------------------------------|
G|-----2-----------0-----0--------------0------------------------------------|
D|-----2--------2-----------2--------0----h2---------------------------------|
A|--0-----------------3------------------------------------------------------|
E|--------0-----------------------3------------------------------------------|

************************************

| /   slide up
| \   slide down
| h   hammer-on
| p   pull-off
| ~   vibrato
| +   harmonic
| x   Mute note
| b   Bend
| pb  Pre-bend
| br  Bend release
| pbr Pre-bend release
| brb Bend release bend
| T   Fret with thumb

************************************

            
            
Suggest correction
Creating personal tab
Creating personal tab
You can edit any tab online and save it as your Personal.

You can edit, replace or remove any tab part or add personal notes – all changes will be seen only by you.

Personal tabs can be accessed anytime from any device, even offline.
Learn more »
comments
print report bad tab
guest
You may want to rate the tab now too:
select rating
Wanna post a correction for this tab? Suggest correction