Oops, an error
Loading. Please wait.
We have an official Rhiannon tab made by UG professional guitarists. Check out the tab »
×
17,454 views 72 this week
3 commentsread comments
1 2 3 4 5
x 6
add to favorites
launch autoscroll
font size
0
reset
guitar tuner
backing track
0:00
0:00
Autoscroll
slow
fast
+/-
esc
set tempo
stop
Author
Difficulty
intermediate
Artist: Fleetwood Mac
Song: Rhiannon
E-mail: silent-rder@live.c-m
Tuning: Standard
Key:Am

[intro] x1
G|---------------------------------------------------------------------------|
D|-----------2-2---------------2-2---------3---3---1h2-----------------------|
A|--0---2h3------3p2---0---2h3-----3p2-----------0-----2h3-------------------|
E|-------------------------------------1-1---1-------------------------------|

[Verse 01] x2                                         *1st run.   *2nd run. 
G|-------------------------------------------------|-----------|-------------|
D|-----------2-2---------------2-2---------3---3---|--1h2------|-2h3---------|
A|--0---2h3------3p2---0---2h3-----3p2-----------0-|------2h3--|------3h5----|
E|-------------------------------------1-1---1-----|-----------|-------------|

 x2
G|---------------------------------------------------------------------------|
D|-------------------------------3-0---3-0---3-3-0-3-3---0-------------------|
A|--3--0---3-3-0---3-0---3-3-0-------3-----3-----------3---------------------|
E|-------3-------3-----3-------3---------------------------------------------|
  
[Verse 02] x2                                         *1st run.   *2nd run. 
G|-------------------------------------------------|-----------|-------------|
D|-----------2-2---------------2-2---------3---3---|--1h2------|-2h3---------|
A|--0---2h3------3p2---0---2h3-----3p2-----------0-|------2h3--|------3h5----|
E|-------------------------------------1-1---1-----|-----------|-------------|

 x2                                                2nd run. x2
G|---------------------------------------------------------|-----------------|
D|-------------------------------3-0---3-0---3-3-0-3-3---0-|-3-3---0---------|
A|--3--0---3-3-0---3-0---3-3-0-------3-----3-----------3---|-----3-----------|
E|-------3-------3-----3-------3---------------------------|-----------------|

[Verse 03] x3
(on 3rd run stay on F & its 8th x6)  *1st run.                 *2nd run. 
G|-------------------------------------------------|-----------|-------------|
D|-----------2-2---------------2-2---------3---3---|--1h2------|-2h3---------|
A|--0---2h3------3p2---0---2h3-----3p2-----------0-|------2h3--|------3h5----|
E|-------------------------------------1-1---1-----|-----------|-------------|

 x2                                             *2nd run. x8
G|---------------------------------------------------------|-----------------|
D|-------------------------------3-0---3-0---3-3-0-3-3---0-|-3-3---0---------|
A|--3--0---3-3-0---3-0---3-3-0-------3-----3-----------3---|-----3-----------|
E|-------3-------3-----3-------3---------------------------|-----------------|

[Fade out]
G|---------------------------------------------------------------------------|
D|-----------2-2---------------2-2---------3---3---1h2-----------------------|
A|--0---2h3------3p2---0---2h3-----3p2-----------0-----2h3-------------------|
E|-------------------------------------1-1---1-------------------------------|

************************************

| h  Hammer--n
| p  Pull--ff

************************************
Suggest correction
comments
print report bad tab
3 comments total.
0 reply
smeyer98765 10 Aug 22, 2014 02:06 PM

Lack of accuracy. Clearly wrong.

0 reply
skyetripp 10 Mar 10, 2015 02:34 PM

Lack of accuracy. Clearly wrong. Nearly all of this was wrong and tagged absolutely incorrectly... :/
Sucks that this is the only listing I could find online for this song on my bass.

guest
You may want to rate the tab now too:
select rating
Wanna post a correction for this tab? Suggest correction