Oops, an error
Loading. Please wait.
We have an official Rhiannon tab made by UG professional guitarists. Check out the tab »
×

Rhiannon Tab

version 1
version 1

Whole song

Interactive

169,862 views 579 this week
8 commentsread comments
1 2 3 4 5
x 42
add to favorites
×
Save as Personal and add changes to this tab that will be seen only by you. Learn more ›
×
You can save this tab as Personal to edit and correct it or add notes. All changes will be seen only by you. Learn more »
save as personal
new!
launch autoscroll
font size
0
reset
how to read this tab
guitar tuner
backing track
0:00
0:00
Autoscroll
slow
fast
+/-
esc
set tempo
stop
Fleetwood Mac
Rhiannon


[Intro & Verse]

       (Am)           (F)
e|---------------|-------------|
B|-1-3-5-3-1-0---|---0-1-0-0---|
G|-2-4-5-4-2-0-2-|-2-0-2-0-0-2-|
D|-------------3-|-3---------3-|
A|---------------|-------------|
E|---------------|-------------|


[Chorus]

    (C)                  (F)
e|-------|-----------|---------------|---|
B|-------|-------1---|-------1-0-----|---|
G|-0-2-0-|-*-0-2-0-*-|-*-0-2-2-0-2-*-|-0-|
D|-2-3-2-|-*-2-3---*-|-*-2-3-----3-*-|-2-|
A|-------|-----------|---------------|---|
E|-------|-----------|---------------|---|


[Break] (1:49)

e|---------------|
B|-1-0-1-3-1-0---|
G|-2-0-2-4-2-0-2-|
D|-------------3-|
A|---------------|
E|---------------|
Suggest correction
comments
print report bad tab
8 comments total. Showing first comments.
+7 reply
IanvomSaal 501 Feb 17, 2003 07:00 PM

The intro is actually done more like this:
Am F
e[----------------[-------------[
B[-1-3-5--3-1-0---[---0-1-0-0---[
G[-2-4-5--4-2-0-2-[-2-0-2-0-0-2-[
D[-------------(2)[-3---------3-[
A[-0-----0--------[-------------[
E[----------------[-1---------1-[

Take note the (E), NOT the F played on the D-strings-2nd-fret - also note the bass notes played in conjunction with the rest of the intro - there are actualy more, but I simplified it a bit.
-Ian C.T. vom Saal

+2 reply
IanvomSaal 501 Feb 17, 2003 07:00 PM

Intro & Verse [Am] [F]
[----------------[-------------[
[-1-3-5--3-1-0---[---0-1-0-0---[
[-2-4-5--4-2-0-2-[-2-0-2-0-0-2-[
[-------------(2)[-3---------3-[
[-0-----0--------[-------------[
[----------------[-1---------1-[

+3 reply
IanvomSaal 501 Feb 17, 2003 07:00 PM

[BREAK/FILL]
[-1-0-----------[
[-1-0-1-3-1-0---[
[-----2-0-0-0-2-[~~~~~~~~~~
[-------------2-[~~~~~~~~~~
[---------------[
[---------------[
This is the actual break/fill part. You have to read everything in a mono-spaced font(like courier)to see it correctly -

guest
Wanna post a correction for this tab? Suggest correction