Oops, an error
Loading. Please wait.
We have an official Rhiannon tab made by UG professional guitarists. Check out the tab »
×
1,072 views 6 this week
no commentswrite comment
1 2 3 4 5
x 3
add to favorites
×
Save as Personal and add changes to this tab that will be seen only by you. Learn more ›
×
You can save this tab as Personal to edit and correct it or add notes. All changes will be seen only by you. Learn more »
launch autoscroll
font size
0
reset
guitar tuner
backing track
0:00
0:00
edit
Autoscroll
slow
fast
+/-
esc
set tempo
stop
-------------------------------------------------------------------------------
                             RHIANNON - Fleetwood Mac
-------------------------------------------------------------------------------
Tabbed by: Cait :) 
E-mail: caitsullivan57@gmail.com

Hope this is right as I did it by ear :)


Tuning: Standard EADG

Intro: 0:07s
G|----------------------------------------------------------|
D|--------2-2------------2-2-----3---3-3---3-3---2h3--------|
A|--0-2h3-----2h3--0-2h3-----2h3---3-----3-----3-----2h3----|
E|----------------------------------------------------------|
  
  Verse 1: 0:15s                                     First Ending  Second Ending
G|-----------------------------------------------|   |----------|  |-----------| 
D|--------2-2------------2-2-----3---3-3---3-3---|   |-2h3------|  |-2h3-0h2---|
A|--0-2h3-----2h3--0-2h3-----2h3---3-----3-----3-|x2 |-----2h3--|  |-----------|
E|-----------------------------------------------|   |----------|  |-----------|

  Chorus: 0:31s                                               First Ending  Second Ending
G|-------------------------------------------------------|    |-------0--|  |----------|  
D|-----------------------------0-3-3---0-3-3---0-3-3---0-|    |-3-0-3----|  |-2h3------|
A|-3---0-3-3---0-3-0-3-3---0-3-------3-------3-------3---|x2  |----------|  |----------|
E|---3-------3-----------3-------------------------------|    |----------|  |-----3h4--|

  Verse 2: 0:44s  (SAME AS VERSE 1)                  First Ending  Second Ending
G|-----------------------------------------------|   |----------|  |-----------| 
D|--------2-2------------2-2-----3---3-3---3-3---|   |-2h3------|  |-2h3-0h2---|
A|--0-2h3-----2h3--0-2h3-----2h3---3-----3-----3-|x2 |-----2h3--|  |-----------|
E|-----------------------------------------------|   |----------|  |-----------|

  Chorus: 1:00s                                               First Ending  Second Ending
G|-------------------------------------------------------|    |---------|   |----------|  
D|-----------------------------0-3-3---0-3-3---0-3-3---0-|    |-3-3-----|   |---0-3-3--|
A|-3---0-3-3---0-3-0-3-3---0-3-------3-------3-------3---|x2  |-----0-2-|   |-3--------|x4
E|---3-------3-----------3-------------------------------|    |---------|   |----------|

  Guitar Solo: 1:18s                                 First 3 times:      4th time:
G|----------------------------------------------|    |----------|       |--------------------| 
D|--------2-2------------2-2-----3---3-3---3-3--|    |-2h3------|       |-3-3---3-3--3-3---3-| STOP.
A|--0-2h3-----2h3--0-2h3-----2h3---3-----3-----3|x4  |-----2h3--|       |-----3----3-----3---| (4 beats)
E|----------------------------------------------|    |----------|       |--------------------|

  Verse 3: 1:52s                                                   First Ending   Second Ending
G|------------------------------------------------------------|    |-----------|  |----------|
D|-----------2---------2-2------------2-2-----3---3-3---3-3---|    |-2h3-------|  |-2h3-0h2--|
A|-0-2-0-3-0---3-0-2h3-----2h3--0-2h3-----2h3---3-----3-----3-|x2  |-----2h3---|  |----------|
E|------------------------------------------------------------|    |-----------|  |----------|

  Chorus: 2:06                                                First Ending  Second Ending
G|-------------------------------------------------------|    |-------0--|  |----------|  
D|-----------------------------0-3-3---0-3-3---0-3-3---0-|    |-3-0-3----|  |---0-3-3--|
A|-3---0-3-3---0-3-0-3-3---0-3-------3-------3-------3---|x2  |----------|  |-3--------|x8  
E|---3-------3-----------3-------------------------------|    |----------|  |----------|

  Outro//2nd Guitar Solo: 2:29
G|--------------------------------------------------------|   
D|--------2-2------------2-2-----3---3-3---3-3---2h3------|  
A|--0-2h3-----2h3--0-2h3-----2h3---3-----3-----3-----2h3--|x12 (fade out on 13th repeat)
E|--------------------------------------------------------|  



| /  slide up
| \  slide down
| h  hammer-on
| p  pull-off
| ~  vibrato
| +  harmonic
| x  Mute note
===============================================================================
Suggest correction
Creating personal tab
Creating personal tab
You can edit any tab online and save it as your Personal.

You can edit, replace or remove any tab part or add personal notes – all changes will be seen only by you.

Personal tabs can be accessed anytime from any device, even offline.
Learn more »
Give kudos to tab author, rate the tab!
1 2 3 4 5
comments
print report bad tab
guest
You may want to rate the tab now too:
select rating
Wanna post a correction for this tab? Suggest correction