Oops, an error
Loading. Please wait.

Rhiannon Tab

version 4
version 4

Whole song

Interactive

12,617 views 99 this week
3 commentsread comments
1 2 3 4 5
x 20
add to favorites
launch autoscroll
font size
0
reset
how to read this tab
guitar tuner
backing track
0:00
0:00
×
Best way to learn
"Rhiannon"
Autoscroll
slow
fast
+/-
esc
set tempo
stop
Author
Difficulty
intermediate
Fleetwood Mac - Rhiannon

[Intro] (you can play this instead of Am - F for the whole song)

   Am                              F
e|-------------------------------|-------------------------------|
B|-1-3---5-----3---1-0-----------|---0---1-----0-0---------------|
G|-2-4---5-----4---2-0---2-------|-2-0---2-----0-0---2-----------|
D|-----------------------2-------|-3-----------------3-----------|
A|-0---0---0---0---0---0---0---0-|-------------------------------|
E|-------------------------------|-1---1---1---1---1---1---1---1-|

 Am
Rhiannon rings like a bell through the night and
 F
Wouldn't you love to love her?
 Am
Takes to the sky like a bird in flight and
 F
Who will be her lover?

   C                                 F
e|---------------------------------|-------------------------| When you get to the F for the second time end
B|-------1-------1-------1-------1-|-------1-0---------1-0---| with on the first fret on the second string
G|---0-------0-------0-------0-----|---2-------2---2-------2-| instead of the second fret ont the third
D|-----2-------2-------2-------2---|-----3-----------3-------| string.
A|-3-------3-------3-------3-------|-3-----------3-----------|
E|---------------------------------|-------------------------| 

 C
All your life you've never seen
 F
A woman taken by the wind
 C
Would you stay if she promised you heaven?
 F
Will you ever win?

 Am
She is like a cat in the dark and then
 F
She is the darkness
 Am
She rules her life like a fine skylark and when
 F
The sky is starless

 C
All your life you've never seen
 F
A woman taken by the wind
 C
Would you stay if she promised you heaven?
 F
Will you ever win?
 F
Will you ever win?

e|-------------8-------------|
B|-8h10p8-8h10---10-8---8h10-|
G|--------------------9------|
D|---------------------------|
A|---------------------------|
E|---------------------------|

 Am F
   Rhiannon
 Am F
   Rhiannon

e|-----------10--------------------|
B|-10p8-10p8----8h10p8-------------|
G|---------------------9-7/9-7p5---|
D|-------------------------------7-|
A|---------------------------------|
E|---------------------------------|

 Am F
   Rhiannon
 Am F
   Rhiannon

e|---------------|
B|-1-0-1/3\1-0---|
G|-2-0-2/4\2-0-2-|
D|-------------2-|
A|-0---0-----0---|
E|---------------|

 Am
She rings like a bell through the night and
 F
Wouldn't you love to love her?
 Am
She rules her life like a bird in flight and
 F
Who will be her lover?

 C
All your life you've never seen
 F
A woman taken by the wind
 C
Would you stay if she promised you heaven?
 F
Will you ever win?
 F
Will you ever win?

e|-------17-------------|
B|-17h20----17----------|
G|-------------19-17----|
D|-------------------19-|
A|----------------------|
E|----------------------|

 Am   F (for the rest of the song)

Rhiannon
Rhiannon

e|-------15------------------------|
B|-15h17----17-15----15h17p15------|
G|----------------17----------17---|
D|------------------------------19-|
A|---------------------------------|
E|---------------------------------|

Rhiannon

Taken by
Taken by the sky

Taken by
Taken by the sky

e|-8-8------------------------|
B|-----10--10-8-10/12\10-8-10-|
G|----------------------------|
D|----------------------------|
A|----------------------------|
E|----------------------------|

Taken by
Taken by the sky

e|-10--------------8----------------8-10/12-8-10--------------------------------------|
B|----10-10---8-10---10-8---8h10-10--------------10---8h10-8h10--8h10-----------------|
G|------------------------9-------------------------------------------7h9-5h7/9\7-5---|
D|----------------------------------------------------------------------------------7-|
A|------------------------------------------------------------------------------------|
E|------------------------------------------------------------------------------------|

  From here on I just pick some notes from the Am pentatonic scale as it's quite inaudible for 
  me to hear what he is actually playing.

Dreams unwind
Love's a state of mind

Dreams unwind
Love's a state of mind

Dreams unwind
Love's a state of mind



************************************

| h  Hammer-on
| p  Pull-off
| /  Slide up
| \  Slide down

************************************
Suggest correction
comments
print report bad tab
3 comments total.
+1 reply
sdunn15 10 Nov 13, 2015 01:22 PM

I'm too cheap to sign up for the Pro tabs, so I can't speak for those, but this is the best tab of this song I've seen so far.

0 reply
Dimitree88 10 Feb 25, 2016 03:28 AM

this part

e|---------------|
B|-1-0-1/3\1-0-2-|
G|-2-0-2/4\2-0-2-|
D|---------------|
A|-0---0-----0---|
E|---------------|


should be

e|---------------|
B|-1-0-1/3\1-0---|
G|-2-0-2/4\2-0-2-|
D|-------------2-|
A|-0---0-----0---|
E|---------------|

guest
You may want to rate the tab now too:
select rating
Wanna post a correction for this tab? Suggest correction