Oops, an error
Loading. Please wait.

Sara tab

version 1
version 1

Whole song

Interactive

3,532 views 57 this week
no commentswrite comment
1 2 3 4 5
x 7
add to favorites
×
Save as Personal and add changes to this tab that will be seen only by you. Learn more ›
×
You can save this tab as Personal to edit and correct it or add notes. All changes will be seen only by you. Learn more »
launch autoscroll
font size
0
reset
how to read this tab
guitar tuner
edit
Autoscroll
slow
fast
+/-
esc
set tempo
stop
Fleetwood Mac - Sara

Capo: 3rd fret

Intro + verse 1

e|-------2--------------4-------------5-------------4-------| 2x
B|-----3---3---3------5---5---5-----7---7---7-----5---5---5-|
G|---2-------2------4-------4-----6-------6-----4-------4---|
D|-0--------------0-------------0-------------0-------------|
A|----------------------------------------------------------|
E|----------------------------------------------------------|

Wait a minute baby
Stay with me awhile
Said you'd give me light
But you never told me about the fire

Guitar part 1
e|-2---0-0--2---0---2-2---0|-2---2-2--2---2---2-2---2-|--------------------------|-0---0-0--0---0---0-0---0-|
B|-3---2-2--3---2---3-3---2|-3---2-2--3---2---3-3---2-|-3---2-2--3---2---3-3---2-|-3---2-2--3---2---3-3---2-|
G|-2---2-2--2---2---2-2---2|-4---4-4--4---4---4-4---4-|-0---0-0--0---0---0-0---0-|-2---2-2--2---2---2-2---2-|
D|-0---0-0--0---0---0-0---0|-4---4-4--4---4---4-4---4-|-0---0-0--0---0---0-0---0-|-2---2-2--2---2---2-2---2-|
A|-------------------------|--------------------------|--------------------------|-0---0-0--0---0---0-0---0-|
E|-------------------------|--------------------------|-3---3-3--3---3---3-3---3-|--------------------------|

Drowning in the sea of love
Where everyone would love to drown
But now it's gone
It doesn't matter what for
When you build your house
Then call me home

Guitar part 2
e|-2--4--5-|-2--4--5-|-7--5--4-|-7--5--4-|
B|-3--5--7-|-3--5--7-|-5--5--5-|-5--5--5-|
G|-2--4--6-|-2--4--6-|-4--4--4-|-4--4--4-|
D|-0--0--0-|-0--0--0-|-0--0--0-|-0--0--0-|
A|---------|---------|---------|---------|
E|---------|---------|---------|---------|

And he was just like a great dark wing
Within the wings of a storm
I think I had met my match, he was singing
And undoing, and undoing the laces
Undoing the laces

Guitar part 1

In the sea of love
Where everyone would love to drown
But now it's gone
They say it doesn't matter anymore
When you build your house
Then please call me home

Sara, you're the poet in my heart
Never change, never stop
But now it's gone
It doesn't matter anymore
When you build your house
I'll come by

Sara
Sara

-Feel free to add some strumming to it to your liking-
Suggest correction
Creating personal tab
Creating personal tab
You can edit any tab online and save it as your Personal.

You can edit, replace or remove any tab part or add personal notes – all changes will be seen only by you.

Personal tabs can be accessed anytime from any device, even offline.
Learn more »
comments
print report bad tab
guest
You may want to rate the tab now too:
select rating
Wanna post a correction for this tab? Suggest correction