Oops, an error
Loading. Please wait.

Say That You Love Me bass

9,484 views 3 this week
1 commentread comment
1 2 3 4 5
1 last vote to show rating
add to favorites
×
Save as Personal and add changes to this tab that will be seen only by you. Learn more ›
×
You can save this tab as Personal to edit and correct it or add notes. All changes will be seen only by you. Learn more »
launch autoscroll
font size
0
reset
guitar tuner
edit
Autoscroll
slow
fast
+/-
esc
set tempo
stop
Author
Difficulty
Fleetwood Mac – Say You Love Me

Intro
G |---------------|--------------|----------------|-------------|
D |------4--2-----|--------------|-------4--2-----|-------------|
A |---------------|--------------|----------------|-------------|
E |------------5--|--5-5---5-5---|--5----------5--|--5-5---55---|

G |---------------|
D |------4---2----|
A |---------------|
E |--5----------5-|

Verse 2x
G |--------------|--------------|--------------|--------------|
D |--------------|--------------|--------------|--------------|
A |--------------|--------------|--------------|----44567-----|
E |--5-5---5-5---|--5-5---5-5---|--5-5---5-5---|-5------------|

								(end only first time)
G |--------------|--------------|--------------|---------------|
D |--------------|--------------|--------------+-----4---2-----+
A |--7-7---7-7---|--7-7--974--0-|--------------+---------------+
E |--------------|--------------|--5-5---5-5---|--5----------5-|

Refrein
G |---------------|-------2-2-4-6-|-4-2-----------|------------|
D |-------2-3-4-2-|-0-2-4---------|-----4-2-4-4-2-|------------|
A |-0-2-4---------|---------------|---------------|-4--2-0-0-2-|
E |---------------|---------------|---------------|------------|

G |---------------|-------2-2-4-6-|-4-2-----------|-------------|
D |-------2-3-4-2-|-0-2-4---------|-----4-2-4-4-2-|-------------|
A |-0-2-4---------|---------------|---------------|-4--2-0------|
E |---------------|---------------|---------------|---------5-5-|

G |--------------|
D |--------------|
A |-------9---7--|
E |--5-5---------|

Bridge
G |--------------|--------------|--------------|--------------|
D |--------------|--------------|*-------------|--------------|
A |--------------|--------------|*-------------|--------------|
E |--5-5---5-5---|--5-5---5-5---|--5-5---5-7---|--7-7---4-0---|

G |--------------|--------------|--------------|--------------|
D |--------------|--------------|--------------|--------------|
A |--------------|--------------|--------------|--------------|
E |--0-0---0-7---|--7-7---4-0---|--0-0---0-7---|--7-7---4-0---|

G |--------------|--------------|
D |--------------|-------------*|
A |--------------|-------------*|
E |--0-5---5-5---|--5-7---7-5---|	Dan verse + Refrein 

Outro

G |-----|-------2-2-4-6-|-4-2-----------|------------|
D |-4-2-|-0-2-4---------|-----4-2-4-4-2-|------------|
A |-----|---------------|---------------|-4--2-0-0-2-|
E |-----|---------------|---------------|------------|

G |---------------|-------2-2-4-6-|-4-2-----------|-------------|
D |-------2-3-4-2-|-0-2-4---------|-----4-2-4-4-2-|-------------|
A |-0-2-4---------|---------------|---------------|-4--2-0------|
E |---------------|---------------|---------------|---------5-5-|

G |-------------|---------------|-------|---------------|
D |*----------4-|-4-2----------*|-------|*-------------*|
A |*--------0---|-----4-2------*|---5~--|*-------------*|
E |--5-5--------|---------5-5---|-------|--5-7---7-5----|


Enjoy it!

Comments to whiteguy_n_harmony@hotmail.com 


Suggest correction
Creating personal tab
Creating personal tab
You can edit any tab online and save it as your Personal.

You can edit, replace or remove any tab part or add personal notes – all changes will be seen only by you.

Personal tabs can be accessed anytime from any device, even offline.
Learn more »
Give kudos to tab author, rate the tab!
1 2 3 4 5
comments
print report bad tab
1 comment total.
0 reply
ViscountViktor 10 May 10, 2014 06:18 AM

when does the bridge section happen in the chorus

guest
You may want to rate the tab now too:
select rating
Wanna post a correction for this tab? Suggest correction