Oops, an error
Loading. Please wait.

Say You Will chords

version 2
version 2

Whole song

2,009 views 6 this week
1 commentread comment
1 2 3 4 5
x 15
add to favorites
×
Save as Personal and add changes to this tab that will be seen only by you. Learn more ›
×
You can save this tab as Personal to edit and correct it or add notes. All changes will be seen only by you. Learn more »
launch autoscroll
font size
0
reset
transpose
0
reset
display chords
guitar tuner
backing track
0:00
0:00
edit
Autoscroll
slow
fast
+/-
esc
set tempo
stop
Strumming
There is no strumming pattern for this song yet. and get +5 IQ
SONG:   SAY YOU WILL
ARTIST: FLEETWOOD MAC
TAB BY: DON CZARSKI
EMAIL:  GUITARZAN7@HOTMAIL.COM

                SAY YOU WILL
               FLEETWOOD MAC

INTRO: (can play these chords)
Bb  C F    Bb  C F    Bb  C F    Bb

                      OR

NOTE: (I believe there are 2 guitars playing this riff)

e|---1 guitar--|--2 guitar----|--------------------|
B|-------------|--------------|--------------------|
G|----s--5-5---|--s--5--s-----|--s--3---s--5-5-5-5-|
D|-3-5\7-5-5-3-|-5\7---7\5-3--|-3\5----5\7---5-5-5-|
A|-------------|--------------|--------------------|
E|-------------|--------------|--------------------|

*NOTE: If only one guitar then play it this way:

      Bb
E ----------|--------------|
B ----------|--------------|
G -let ring-|-----5--------|
D ----3-----|-5/7---7\5-3--|
A ----------|--------------|
E ----------|--------------|

              
VERSE:
 Bb                           C           F
Somethin' in you brought out somethin' in me, 
      Bb              C    F
That I've never been since
 Bb                      C         F
That part of me that was only for you, 
      C         Bb
That kind of romance
 Bb                    C       F
Comes only once, that kind of love
      Bb            C    F 
That kind of fever dance
          Bb                 C            F         Bb
That you love because you become someone else in an instant

 
CHORUS:
Bb       F                         Gm
Say you will, say you will give me one more chance
    Am                     Bb
At least give me time to change your mind
      C               Dm                   Am 
That always seems to heal the wounds, if I can
            Bb
Get you to dance 


VERSE:
 Bb                     C           F
Somethin' in you put a hold on my heart
      Bb              C  F
It's hard to believe now
 Bb                         C         F 
Here in the place that will never be dark
     C           Bb
I remember that place.
 Bb                 C               F
That kind of touch, electricity of love
      Bb               C   F
That certain kind of grace
          Bb                 C            F         Bb
That you love because you become someone else in an instant


CHORUS:
Bb       F                         Gm
Say you will, say you will give me one more chance
    Am                     Bb
At least give me time to change your mind
      C               Dm                   Am 
That always seems to heal the wounds, if I can
            Bb   Bb
Get you to dance  


INSTRUMENTAL:
F  Bb  C    Bb C F    Bb C F   
Bb C F C Bb C Bb   C  F  Bb  


SOLO: Thanks to ayreon77 for tabbing the SOLO part.

e|-------------------s------|----------------------s---------|
B|-13-13-13--13-13-13\15-13-|----10-11--11-11-11-11\13-------|
G|--------------------------|-12-----------------------12-12-|
D|--------------------------|--------------------------------|
A|--------------------------|--------------------------------|
E|--------------------------|--------------------------------|


e|-----------------------|---------------------s--------------------------|
B|-10-----10-11-10-------|-------10---10-13--13\15-----------h--p---------|
G|-----12----------12-12-|-10-12--------------------10-10--10-12-10-12-10-|
D|-----------------------|------------------------------------------------|
A|-----------------------|------------------------------------------------|
E|-----------------------|------------------------------------------------|


e|---------------s--s---|-------------------|
B|-13-13-13-13-13\15/13-|-10-11-13-13-13-13-|
G|----------------------|-------------------|
D|----------------------|-------------------|
A|----------------------|-------------------|
E|----------------------|-------------------|


e|-------------------------s---------|-------------------|-------|
B|----10-11--11-11-11-11-11\13-------|-10-10-11-10-------|-------|
G|-12--------------------------12-12-|-------------12-10-|-------|
D|-----------------------------------|-------------------|-12-12-|
A|-----------------------------------|-------------------|-------|
E|-----------------------------------|-------------------|-------|


e|----------|----------|-----------------------------------------------|
B|-------10-|-------13-|-13-13-13-15-----------h--p--------------------|
G|-10-12----|-12-10----|-------------10--10--10-12-10---10-10-10-10-10-|
D|----------|----------|-----------------------------------------------|
A|----------|----------|-----------------------------------------------|
E|----------|----------|-----------------------------------------------|

CHORUS:
 Bb      F                         Gm                
Say you will, say you will give me one more chance 
    Am                    Bb
At least give me time to change your mind 
      C               Dm                   Am
That always seems to heal the wounds, if I can
            Bb
Get you to dance


CHORUS:
 Bb      F                         Gm                
Say you will, say you will give me one more chance 
    Am                    Bb
At least give me time to change your mind 
      C               Dm                   Am
That always seems to heal the wounds, if I can
            Bb
Get you to dance


CHORUS:
 Bb      F                         Gm                
Say you will, say you will give me one more chance 
    Am                     Bb
At least give me time to change your mind 
      C               Dm                   Am
That always seems to heal the wounds, if I can
            Bb
Get you to dance


CHORUS:
 Bb      F                         Gm                
Say you will, say you will give me one more chance 
     Am                    Bb
At least give me time to change your mind 
      F              Dm                    Am
That always seems to heal the wounds, if I can
            Bb
Get you to dance


CHORUS/OUTRO:
 Bb      F                         Gm                
Say you will, say you will give me one more chance 
     Am                    Bb
At least give me time to change your mind 
      F              Dm                    Am
That always seems to heal the wounds, if I can
            Bb
Get you to dance
 

            
            
Suggest correction
Creating personal tab
Creating personal tab
You can edit any tab online and save it as your Personal.

You can edit, replace or remove any tab part or add personal notes – all changes will be seen only by you.

Personal tabs can be accessed anytime from any device, even offline.
Learn more »
comments
print report bad tab
1 comment total.
0 reply
quangtu11285 10 Oct 29, 2015 08:04 PM

Cb g g

guest
You may want to rate the tab now too:
select rating
Wanna post a correction for this tab? Suggest correction