Oops, an error
Loading. Please wait.
We have Chord Pro version of The Chain.
It's the closest thing you can get to the original song and it has interactive parts. Check out the tab »
×
42,018 views 129 this week
6 commentsread comments
1 2 3 4 5
x 21
add to favorites
×
Save as Personal and add changes to this tab that will be seen only by you. Learn more ›
×
You can save this tab as Personal to edit and correct it or add notes. All changes will be seen only by you. Learn more »
launch autoscroll
font size
0
reset
guitar tuner
backing track
0:00
0:00
edit
Autoscroll
slow
fast
+/-
esc
set tempo
stop
Difficulty
intermediate
G|------------------------------------|
D|------------------------------------|
A|------0----0--2--3--2--0---0--2-----|
E|-1-/-3-------------------3------0---|
     legato

G|------------------------------------|
D|------------------------------------|
A|------0----0--2--3--2--0---0--2-----|
E|-1-/-3-------------------3------0---|
     legato

G|----------------------------|
D|----------------------------|
A|-----------------------0----|
E|-0-0-0-0-0-0-0-0-1-/-3------|
                     legato

G|-------------------------|
D|-------------------------|
A|-0--2--3--2--0---0--2----|
E|---------------3------0--|

            
            
Suggest correction
Creating personal tab
Creating personal tab
You can edit any tab online and save it as your Personal.

You can edit, replace or remove any tab part or add personal notes – all changes will be seen only by you.

Personal tabs can be accessed anytime from any device, even offline.
Learn more »
comments
print report bad tab
6 comments total. Showing first comments.
0 reply
ballin'4life 10 Nov 03, 2007 09:02 PM

Im not really comparing it to the song or anything, but it sounds good. Worth a 5

0 reply
cyborg_monkey 10 Apr 21, 2009 01:48 PM

awesome little riff, great tab

0 reply
reakhavoc 10 Apr 28, 2009 06:20 AM

someone told me it was this but im not sure.

G|------------------------------------|
D|------------------------------------|
A|------------------------------------|
E|--3-----3--5--6--5--3--0--3--5--0---|

its probally wrong but if any one could tell me where its wrong that would be good thnx

guest
Wanna post a correction for this tab? Suggest correction