Oops, an error
Loading. Please wait.
We have Chord Pro version of The Chain.
It's the closest thing you can get to the original song and it has interactive parts. Check out the tab »
×
282,808 views 930 this week
11 commentsread comments
1 2 3 4 5
x 33
add to favorites
×
Save as Personal and add changes to this tab that will be seen only by you. Learn more ›
×
You can save this tab as Personal to edit and correct it or add notes. All changes will be seen only by you. Learn more »
launch autoscroll
font size
0
reset
how to read this tab
guitar tuner
backing track
0:00
0:00
edit
Autoscroll
slow
fast
+/-
esc
set tempo
stop
#----------------------------------PLEASE NOTE---------------------------------#
#This file is the author's own work and represents their interpretation of the #
#song. You may only use this file for private study, scholarship, or research. #
#------------------------------------------------------------------------------##
#

>From: ejn521@aol.com
>Subject: Tab-Fleetwood Mac-"The Chain"
>Date: 15 Nov 1996 04:29:04 GMT

The Chain
by Fleetwood Mac


Standard Tuning
Chords Used:

Em  022000
A    x07650
A7  x07680
Bm/D  xx0432
Am/C  x3x210
Am7   x02013
C      x32010
Dsus4  xx0233
G   3x0033

[Intro]

e|-0--------0---0--3p0-------0--------0-----|
B|-0---3p0-------0-----3p0--0---3p0---------|
G|------------------------------------------|    Play
D|-2-----------------------------2----------|     Twice
A|-2-----------------------------2----------|
E|-0-----------------------------0----------|

Em                       A      A7           Bm/D  Am/C
Listen to the wind blow, watch the sunrise
Em                 A      A7
Run in the shadow, damn your love,
                  Bm/D   Am/C  Em
 damn your lies


[Played as]

e|-------2-----------0---------3-0-----------0-------|
B|-----3--3--------1--1------------3-0------0--------|
G|----4----4------2----2----------------2-0----------|
D|-0--------------------------------------------2----|
A|--------------3-------------------------------2----|
E|-----------------------------0----------------0----|


[Chorus]

          Am7
And if you don't love me now,

You will never love me again
         Em               C
I can still here you saying
                   Dsus4
You would never break the chain
                 Am7
And if you don't love me now

You will never love me again
         Em               C
I can still hear you saying
                  Dsus4               Em
You would never break the chain

(Fill in here is similar to intro)


[Verse]

Listen to the wind blow
Down comes the night
Run in the shadow
Damn your love, damn your lies
Damn the dark damn the night


[Chorus]


[After 2nd Chorus]

e|-0---2--2-----2------2------2-----2------------------|
B|-0---1----1-----1------1------1-----1----------------|
G|-------------------------------------------   Play 4-|
D|-2---2------2-----2------2------2--------------------|   Times
A|-2---------------------------------------------------|
E|-0---------------------------------------------------|


e|------------------------------------------|
B|------------------------------------------|
G|------------------------------------------|
D|------------------------------------------|
A|-0----0-2-3-2-0---0-2---------------------|
E|--------------------3------0----0-0-0-0---|

Am      C  G              Em
Chains      keep us togethor

Running in the shadows

[Repeat to end]



************************************

| p  Pull-off 

************************************

            
            
Suggest correction
Creating personal tab
Creating personal tab
You can edit any tab online and save it as your Personal.

You can edit, replace or remove any tab part or add personal notes – all changes will be seen only by you.

Personal tabs can be accessed anytime from any device, even offline.
Learn more »
comments
print report bad tab
11 comments total. Showing first comments.
0 reply
JerSim94 155 Sep 05, 2007 05:53 PM

thanks for the tab! i was looking for the song, and i found it!

0 reply
JimPrenier_11 10 Nov 13, 2007 03:23 PM

this song is awesome

+8 reply
patrickdenneyto 10 Mar 02, 2008 10:52 AM

i dont think this is a good tab at all

guest
Wanna post a correction for this tab? Suggest correction