Oops, an error
Loading. Please wait.
We have Chord Pro version of The Chain.
It's the closest thing you can get to the original song and it has interactive parts. Check out the tab »
×
99,342 views 489 this week
4 commentsread comments
1 2 3 4 5
x 86
add to favorites
×
Save as Personal and add changes to this tab that will be seen only by you. Learn more ›
×
You can save this tab as Personal to edit and correct it or add notes. All changes will be seen only by you. Learn more »
launch autoscroll
font size
0
reset
guitar tuner
backing track
0:00
0:00
edit
Autoscroll
slow
fast
+/-
esc
set tempo
stop
Author
Unregistered
Tabbed by: Benjamin Jones

Artist: Fleetwood Mac
Song Title: The Chain

G|------------------------------------------|
D|------------------------------------------|
A|--0-0-0-0-0-0-0-0-0/7~-7-7\3~-3-3/5-5-5-5-|
E|------------------------------------------|(x2)

G|------------------------------------------|
D|------------------------------------------|
A|--0-0-0-0-0-0-0-0-0/7~-7-7\3~-3-3/5-5-5-5-|
E|------------------------------------------|

G|------------------------------------------------------|
D|------------------------------------------------------|
A|--0-0-3-2-0-0-3-2-0-0-3-2-0-0-0/7~-7-7\3~-3-3/5-5-5-5-|
E|------------------------------------------------------|

G|------------------------------------------------|
D|------------------------------------------------|
A|--0-0-0-0-3-2-0-0-0-0-0/7~-7-7\3~-3-3/5-5-5-5-0~|
E|------------------------------------------------|

G|-------------------------|
D|-------------------------|
A|--0~-0-2-3--2-0---0-2----|
E|----------------3-----0~-|(x2)

G|-------------------------|        
D|-------------------------|        
A|---0~-0-2-3--2-0---0-2---|        
E|-0---------------3----0~-|(x2)      

G|------------------------------------------|
D|------------------------------------------|
A|---0~-0-2-3--2-0---0-2----7-7-7-7-7-7-7-7-|
E|-0---------------3-----0~-----------------|

G|---------------------------|
D|---------------------------|
A|---0~--0-2-3-2---0---0-2---|
E|-0-------------3---0~------|

************************************

| /  Slide up
| \  Slide down
| ~  Vibrato

************************************
Suggest correction
Creating personal tab
Creating personal tab
You can edit any tab online and save it as your Personal.

You can edit, replace or remove any tab part or add personal notes – all changes will be seen only by you.

Personal tabs can be accessed anytime from any device, even offline.
Learn more »
comments
print report bad tab
4 comments total. Showing first comments.
+2 reply
Mikexv 10 Jun 18, 2011 09:45 AM

Thanks for tabbing out the rest of this song, I was beginning to worry most people here thought that The Chain was only about a minute long - the whole song is amazing not just the ending. Great Tab.

+2 reply
Lord Ice-Cream 10 Dec 22, 2011 10:17 AM

Been looking for the whole song for ages. It's a shame no-one seems to know any of it apart from the end.

0 reply
Peter_Smyth 31 Jan 14, 2016 04:06 AM

There is a mistake with the repeats in "the cool bit". The higher E (A-77777777-|) is played the third time the tif is played. Otherwise, the tab is perfect.

guest
Wanna post a correction for this tab? Suggest correction