Oops, an error
Loading. Please wait.
We have Chord Pro version of The Chain.
It's the closest thing you can get to the original song and it has interactive parts. Check out the tab »
×
4,991 views 21 this week
1 commentread comment
1 2 3 4 5
1 last vote to show rating
add to favorites
×
Save as Personal and add changes to this tab that will be seen only by you. Learn more ›
×
You can save this tab as Personal to edit and correct it or add notes. All changes will be seen only by you. Learn more »
launch autoscroll
font size
0
reset
guitar tuner
backing track
0:00
0:00
edit
Autoscroll
slow
fast
+/-
esc
set tempo
stop
Author
Difficulty
[INTRO] 8 Bars, no bass

[VERSE] No bass
  Em                   A      A7             Bm        Am     Em
    Listen to the wind blow    Watch the sun rise
  Em              A           A7                       Bm        Am     Em
    Run in the shadows        Damn your love damn your lies

[CHORUS]
         Am7                               Am7
  And if you don't love me now    You will never love me again
        Em             C                    Dsus4
  I can still hear you saying     You would never break the chain
 (I can still hear you saying     You would never           never break the chain)
         Am7                               Am7
  And if you don't love me now    You will never love me again
                          (You don't love me now)
        Em             C                   Dsus4
  I can still hear you saying     You must never break the chain
 (I can still hear you saying     You must never break     never break the chain)

  Am7      Am7      Em  C    Dsus4    Am7      Am7      Em  C    Dsus4
G:--------|--------|--------|--------|--------|--------|--------|--------|
D:--------|--------|--------|--------|--------|--------|--------|--------|
A:0-0-0-0-|0-0-0-00/7--\3---/5-------|0-0-0-0-|0-0-0-00/7--\3---/5-------|
E:--------|--------|--------|--------|--------|--------|--------|--------|

[INSTRUMENTAL] 4 Bars, no bass

[VERSE] No bass
  Em                   A      A7                Bm        Am      Em     
    Listen to the wind blow      Down comes the night
  Em              A           A7                          Bm        Am      Em
    Run in the shadows           Damn your love damn your lies
  Em            A             A7                          Bm        Am      Em
    Break the silence            Damn the dark  damn the  light

[CHORUS]
         Am7                               Am7
  And if you don't love me now    You will never love me again
        Em             C                    Dsus4
  I can still hear you saying     You would never break the chain
 (I can still hear you saying     You would never break     never break the chain)
         Am7                               Am7
  And if you don't love me now    You will never love me again
                          (You don't love me now)
        Em             C                   Dsus4
  I can still hear you saying     You must never break the chain
 (I can still hear you saying     You must never break     never break the chain)
         Am7                               Am7
  And if you don't love me now    You will never love me again
                          (You don't love me now)
        Em             C                   Dsus4
  I can still hear you saying     You must never break the chain
 (I can still hear you saying     You must never break     never break the chain)

  Am7      Am7      Em  C    Dsus4    Am7      Am7      Em  C    Dsus4
G:--------|--------|--------|--------|--------|--------|--------|--------|
D:--------|--------|--------|--------|--------|--------|--------|--------|
A:0-0-0-0-|0-0-0-00/7--\3---/5-------|0-0-0-0-|0-0-0-00/7--\3---/5-------|
E:--------|--------|--------|--------|--------|--------|--------|--------|

  Am7      Am7      Em  C    Dsus4    Em                Em
G:--------|--------|--------|--------|--------|--------|--------|--------|--------|
D:--------|--------|--------|--------|--------|--------|--------|--------|--------|
A:0-0-0-0-|0-0-0-00/7--\3---/5-5-5-5-|--------|--------|--------|--------|--------|
E:--------|--------|--------|--------|0~~~~~~~~~~~~~~~-|0~~~~~~~~~~~~~~~~|--------|



[INSTRUMENTAL]
  Am7              Em               Am7              Em
G:----------------|----------------|----------------|----------------|
D:----------------|----------------|----------------|----------------|
A:------023-20-02-|----------------|0-----023-20-02-|----------------|
E:5-----------3---|0---------------|------------3---|0--------------1/5
  1 & 2 & 3 & 4 &  1 & 2 & 3 & 4 &  1 & 2 & 3 & 4 &  1 & 2 & 3 & 4 &  

  Am7              Em               Am7              Em
G:----------------|----------------|----------------|----------------|
D:----------------|----------------|----------------|----------------|
A:------023-20-02-|----------------|------023-20-02-|----------------|
E:5-----------3---|0--------------1/5-----------3---|0--------------1/5
  1 & 2 & 3 & 4 &  1 & 2 & 3 & 4 &  1 & 2 & 3 & 4 &  1 & 2 & 3 & 4 &  

  Am7              Em               Am7              Em
G:----------------|----------------|----------------|----------------|
D:----------------|----------------|----------------|----------------|
A:------023-20-02-|----------------|------023-20-02-|----------------|
E:5-----------3---|0--------------1/5-----------3---|0--------------1/5
  1 & 2 & 3 & 4 &  1 & 2 & 3 & 4 &  1 & 2 & 3 & 4 &  1 & 2 & 3 & 4 &  

  Am7              Em               Am7              Em
G:----------------|----------------|----------------|----------------|
D:----------------|----------------|----------------|----------------|
A:------023-20-02-|----------------|------023-20-02-|----------------|
E:5-----------3---|0--------------1/5-----------3---|0--------------1/5
  1 & 2 & 3 & 4 &  1 & 2 & 3 & 4 &  1 & 2 & 3 & 4 &  1 & 2 & 3 & 4 &  

[CODA] (Repeat and fade...)
  Am7                Em          
  Chain    Keep us together        Run in the shadows
  Am7              Em               Am7              Em
G:----------------|----------------|----------------|----------------|
D:----------------|----------------|----------------|----------------|
A:------023-20-02-|----------------|------023-20-02-|----------------|
E:5-----------3---|0--------------0/5-----------3---|0--------------0/5
  1 & 2 & 3 & 4 &  1 & 2 & 3 & 4 &  1 & 2 & 3 & 4 &  1 & 2 & 3 & 4 &  


Tabbed by Michael Oxner
moxner@nbnet.nb.ca
March 18, 2013
Suggest correction
Creating personal tab
Creating personal tab
You can edit any tab online and save it as your Personal.

You can edit, replace or remove any tab part or add personal notes – all changes will be seen only by you.

Personal tabs can be accessed anytime from any device, even offline.
Learn more »
Give kudos to tab author, rate the tab!
1 2 3 4 5
comments
print report bad tab
1 comment total.
0 reply
Scoobie_Snack 42 Oct 26, 2014 06:09 AM

Excellent tab, had a blast jamming along :)

guest
You may want to rate the tab now too:
select rating
Wanna post a correction for this tab? Suggest correction