Oops, an error
Loading. Please wait.

The Green Manalishi tab

version 2
version 2

Whole song

Interactive

8,568 views 12 this week
no commentswrite comment
1 2 3 4 5
1 last vote to show rating
add to favorites
×
Save as Personal and add changes to this tab that will be seen only by you. Learn more ›
×
You can save this tab as Personal to edit and correct it or add notes. All changes will be seen only by you. Learn more »
launch autoscroll
font size
0
reset
how to read this tab
guitar tuner
edit
Autoscroll
slow
fast
+/-
esc
set tempo
stop
Author
-------------------------------------------------------------------------------------------------
                               THE GREEN MANALISHI – Fleetwood Mac
                                           (PA Green)
                                      Greatest Hits [1971]
-------------------------------------------------------------------------------------------------


Tabbed by: varannion
Email:     dm_hughes1@hotmail.com


Tuning: Standard


  Intro

    |---------------------------------- palm mute ---------------------------------
      Em                                                    Em7
e|----------------------------|--------------------------|--------------------------|
B|----------------------------|--------------------------|--------------------------|
G|----------------------------|--------------------------|--------------------------|
D|-------------5--5-----5--5--|-----5--5--5--5--5--5--5--|-----------5--5-----5--5--|
A|----7--7—-7--7—-7--7--7--7--|--7--7—-7--7—-7--7--7--7--|--5--5—-5--5—-5--5--5--5--|
E|----0--0—-0--0--0--0—-0--0--|--0--0—-0--0--0--0—-0--0--|--0--0—-0--0--0--0—-0--0--|
 |    rake                                                  rake
e|----0-----------------------|-(0)----------------------|--0-----------------------|
B|----0-----------------------|-(0)----------------------|--0-----------------------|
G|----0-----------------------|-(0)----------------------|--0-----------------------|
D|----5-----------------------|-(5)----------------------|--4-----------------------|
A|----7-----------------------|-(7)----------------------|--5-----------------------|
E|----0-----------------------|-(0)----------------------|--0-----------------------|


    -------------------------------------------------------------------------------
                                 A/E
e|----------------------------|--------------------------|--------------------------|
B|----------------------------|--------------------------|--------------------------|
G|----------------------------|--------------------------|--------------------------|
D|-------------5--5--5--5-----|--7--7--7--7--7--7--7--7--|--7--7--7--7--7--7--7-----|
A|----5--5—-5--5—-5--5--5-----|--4--4—-4--4—-4--4--4--4--|--4--4—-4--4—-4--4--4--0--|
E|----0--0—-0--0--0--0—-0--0--|--0--0—-0--0--0--0—-0--0--|--0--0—-0--0--0--0—-0--0--|
 |
e|---(0)----------------------|--------------------------|--------------------------|
B|---(0)----------------------|--------------------------|--------------------------|
G|---(0)----------------------|--------------------------|--------------------------|
D|---(4)----------------------|--7-----------------------|-(7)----------------------|
A|---(5)----------------------|--4-----------------------|-(4)----------------------|
E|---(0)----------------------|--0-----------------------|-(0)----------------------|


    -------------------------------------------------------------------------------
      Em
e|----------------------------|--------------------------|--------------------------|
B|----------------------------|--------------------------|--------------------------|
G|----------------------------|--------------------------|--------------------------|
D|----------------------------|--------------------------|--------------------------|
A|----7--7—-7--7—-7--7--7--7--|--7--7—-7--7—-7--7--7--7--|--7--7—-7--7—-7--7--7--7--|
E|----0--0—-0--0--0--0—-0--0--|--0--0—-0--0--0--0—-0--0--|--0--0—-0--0--0--0—-0--0--|
 |    rake
 |    +
e|----------------------------|--------------------------|--------------------------|
B|----12----------------------|--------------------------|--------------------------|
G|----12----------------------|--------------------------|--------------------------|
D|----12----------------------|--------------------------|--------------------------|
A|----------------------------|--------------------------|--------------------------|
E|----------------------------|--------------------------|--------------------------|

                               Verse 1
    -------------------------------------------------------------------------------|
      Em
e|----------------------------|--------------------------|--------------------------|
B|----------------------------|--------------------------|--------------------------|
G|----------------------------|--------------------------|--------------------------|
D|----------------------------|--------------------------|--------------------------|
A|----7--7—-7--7—-7--7--7--7--|--7--7—-7--7—-7--7--7--7--|--7--7—-7--7—-7--7--7--7--|
E|----0--0—-0--0--0--0—-0--0--|--0--0—-0--0--0--0—-0--0--|--0--0—-0--0--0--0—-0--0--|
 |
e|----------------------------|--------------------------|--------------------------|
B|----------------------------|--------------------------|--------------------------|
G|----------------------------|--------------------------|--------------------------|
D|----------------------------|--------------------------|--------------------------|
A|----------------------------|--------------------------|--------------------------|
E|----------------------------|--------------------------|--------------------0--0--|

      ~~~ ~~~
                                           |------------------- palm mute -------------------|
             G/E A/E G/E   A/E  G/E  Em     Em 
e|----------------------|------------0---|--------------------------|--------------------------|
B|----------------------|------------0—--|--------------------------|--------------------------|
G|------------4/6----4--|--6----4----0---|--------------------------|--------------------------|
D|------------5/7----5--|--7----5----2---|--------------------------|--------------------------|
A|----7--7--—-5/7----5--|--7----5----2—--|--7--7—-7--7—-7--7--7--7--|--7--7—-7--7—-7--7--7--7--|
E|----0--0--—-----------|------------0---|--0--0—-0--0--0--0—-0--0--|--0--0—-0--0--0--0—-0--0--|
 |
e|-----------7-9-----7--|--9----7--------|--------------------------|--------------------------|
B|-----------8-10----8--|--10---8--------|--------------------------|--------------------------|
G|----------------------|------------0---|--------------------------|--------------------------|
D|----------------------|------------0---|--------------------------|--------------------------|
A|----------------------|------------2-—-|--------------------------|--------------------------|
E|----0--0--------------|----------------|--------------------------|--------------------0--0--|


      ~~~ ~~~
             G/E A/E G/E   A/E  G/E  Em     G                         A
e|----------------------|------------0---|-------------------------|--5----------------------|
B|----------------------|------------0—--|-------------------------|--5----------------------|
G|------------4/6----4--|--6----4----0---|--4--4--4--4--4--4--4----|--6----------------------|
D|------------5/7----5--|--7----5----2---|--5--5--5--5--5--5--5----|--7----------------------|
A|----7--7--—-5/7----5--|--7----5----2—--|--5--5--5--5--5--5--5----|--7----------------------|
E|----0--0--—-----------|------------0---|--3--3--3--3--3--3--3----|--5----------------------|
 |                                                                    rake
e|-----------7-9-----7--|--9----7--------|-------------------------|--5----------------------|
B|-----------8-10----8--|--10---8--------|-------------------------|--5----------------------|
G|----------------------|------------0---|--4----------------------|--6----------------------|
D|----------------------|------------0---|--5----------------------|--7----------------------|
A|----------------------|------------2-—-|--5----------------------|--7----------------------|
E|----0--0--------------|----------------|--3----------------------|--5----------------------|


   |------- palm mute ------|                               rake
      Em                Fsus2                               Em Ebdim Em
e|----------------------------|--------------------------|---------------------------------|
B|----------------------------|--------------------------|--0------------------------------|
G|----------------------------|--------------------------|--0------------------------------|
D|----2-----------------------|--------------------------|--5---4---5-------------------5--|
A|-------0--2-----0--------3--|--(3)---------------------|--7---6---7-------------------7--|
E|-------------3-----2--1-----|--------------------------|--------------0---0---0---0------|
 |
e|----------------------------|--------------------------|---------------------------------|
B|----------------------------|--------------------------|---------------------------------|
G|-------------------------0--|--(0)---------------------|---------------------------------|
D|----2-----------------------|--------------------------|---------------------------------|
A|-------0--2-----0-----------|--------------------------|---------------------------------|
E|-------------3-----2--1-----|--------------------------|---------------------------------|



    Ebdim Em                 Em Ebdim Em                         F#dim Em     D
e|-------------------------|-----------------------------------|-------------------|
B|-------------------------|-----------------------------------|-------------------|
G|-------------------------|-----------------------------------|-------------------|
D|----4---5-------4--------|--5---4---5--------------------9---|----7--5------4----|
A|----6---7-------5--------|--7---6---7--------------------10--|----9--7------5----|
E|------------0------------|-------------0--0--0---0---0-------|-------------------|
 |
e|-------------------------|-----------------------------------|-------------------|
B|-------------------------|--8---9---12-------------------12--|----10--9-----7----|
G|-------------------------|--9---11--12-------------------12--|----11--9-----7----|
D|-------------------------|-----------------------------------|-------------------|
A|-------------------------|-----------------------------------|-------------------|
E|-------------------------|-----------------------------------|-------------------|

  Verse 2
    |-------------------- palm mute -------------------|    ~~~ ~~~
      Em                                                           G/E A/E G/E   A/E  G/E  Em
e|----------------------------|--------------------------|--------------------|------------0---|
B|----------------------------|--------------------------|--------------------|------------0—--|
G|----------------------------|--------------------------|----------4/6----4--|--6----4----0---|
D|----------------------------|--------------------------|----------5/7----5--|--7----5----2---|
A|----7--7—-7--7—-7--7--7--7--|--7--7—-7--7—-7--7--7--7--|--7--7--—-5/7----5--|--7----5----2—--|
E|----0--0—-0--0--0--0—-0--0--|--0--0—-0--0--0--0—-0--0--|--0--0--—-----------|------------0---|
 |
e|----------------------------|--------------------------|---------7-9-----7--|--9----7--------|
B|----------------------------|--------------------------|---------8-10----8--|--10---8--------|
G|----------------------------|--------------------------|--------------------|------------0---|
D|----------------------------|--------------------------|--------------------|------------0---|
A|----------------------------|--------------------------|--------------------|------------2-—-|
E|----------------------------|--------------------0--0--|--0--0--------------|----------------|


    |-------------------- palm mute -------------------|   ~~~ ~~~
      Em                                                           G/E A/E G/E   A/E  G/E  Em
e|----------------------------|--------------------------|--------------------|------------0---|
B|----------------------------|--------------------------|--------------------|------------0—--|
G|----------------------------|--------------------------|----------4/6----4--|--6----4----0---|
D|----------------------------|--------------------------|----------5/7----5--|--7----5----2---|
A|----7--7—-7--7—-7--7--7--7--|--7--7—-7--7—-7--7--7--7--|--7--7--—-5/7----5--|--7----5----2—--|
E|----0--0—-0--0--0--0—-0--0--|--0--0—-0--0--0--0—-0--0--|--0--0--—-----------|------------0---|
 |
e|----------------------------|--------------------------|---------7-9-----7--|--9----7--------|
B|----------------------------|--------------------------|---------8-10----8--|--10---8--------|
G|----------------------------|--------------------------|--------------------|------------0---|
D|----------------------------|--------------------------|--------------------|------------0---|
A|----------------------------|--------------------------|--------------------|------------2-—-|
E|----------------------------|--------------------0--0--|--0--0--------------|----------------|



      G                    A
e|----------------------------|--------------------------|
B|----------------------------|--------------------------|
G|----4--4--4--4--4--4--4--6--|--(6)---------------------|
D|----5--5--5--5--5--5--5--7--|--(7)---------------------|
A|----5--5--5--5--5--5--5--7--|--(7)--7--7--7--7--7—7----|
E|----3--3--3--3--3--3--3--5--|--(5)--5--5--5--5--5—5----|
 |
e|----------------------------|--------------------------|
B|----------------------------|--------------------------|
G|----4---------------(4)--6--|--(6)---------------------|
D|----5---------------(5)--7--|--(7)---------------------|
A|----5---------------(5)--7--|--(7)---------------------|
E|----3---------------(3)--5--|--(5)---------------------|


  |----- palm mute ----|
    Em               Fsus2
e|----------------------------|--------------------------|
B|----------------------------|--------------------------|
G|----------------------------|--------------------------|
D|----2-----------------------|--------------------------|
A|-------0--2-----0--------3--|--(3)---------------------|
E|-------------3-----2--1-----|--------------------------|
 |
e|----------------------------|--------------------------|
B|----------------------------|--------------------------|
G|----------------------------|--------------------------|
D|----2-----------------------|--------------------------|
A|-------0--2-----0--------3--|--(3)---------------------|
E|-------------3-----2--1-----|--------------------------|



      Em Ebdim Em                        F#dim?E             Em      D
e|------------------------------------|---------------------------------|
B|------------------------------------|---------------------------------|
G|------------------------------------|---------------------------------|
D|----5---4---5-----------9---9---9---|------7---7---7-------5---5---4--|
A|----7---5---7-----------10--10--10--|------9---9---9-------7—--7--—5--|
E|----------------0---0---------------|--0---------------0--------------|
 |
e|------------------------------------|---------------------------------|
B|---8---7---8------------12--12--12--|-----10--10—-10-------8---8---7--|
G|---9---8---9------------12--12--12--|-----11--11--11-------9---9---7--|
D|------------------------------------|---------------------------------|
A|------------------------------------|---------------------------------|
E|------------------------------------|---------------------------------|



       C                                 B   C               D
e|------------------------------------|---------------------------------|
B|------------------------------------|---------------------------------|
G|------------------------------------|---------------------------------|
D|-----3---2---2-------------------2--|--1---2---------------4---4------|
A|-----5---3---3-------------------3--|--2---3---------------5---5------|
E|-----------------0---0---0---0------|----------0---0---0-----------0--|
 |
e|------------------------------------|---------------------------------|
B|----7---5---5--------------------5--|--4---5---------------7---7------|
G|----7---5---5--------------------5--|--4---5---------------7---7------|
D|------------------------------------|---------------------------------|
A|------------------------------------|---------------------------------|
E|------------------------------------|---------------------------------|
 


      Em Ebdim Em                        F#dim?E             Em      D
e|------------------------------------|---------------------------------|
B|------------------------------------|---------------------------------|
G|------------------------------------|---------------------------------|
D|----5---4---5-----------9---9---9---|------7---7---7-------5---5---4--|
A|----7---5---7-----------10--10--10--|------9---9---9-------7—--7--—5--|
E|----------------0---0---------------|--0---------------0--------------|
 |
e|------------------------------------|---------------------------------|
B|----8---7---8-----------12--12--12--|------10--10—-10------8---8---7--|
G|----9---8---9-----------12--12--12--|------11--11--11------9---9---7--|
D|------------------------------------|---------------------------------|
A|------------------------------------|---------------------------------|
E|------------------------------------|---------------------------------|



       C                                 B   C               D
e|------------------------------------|---------------------------------|
B|------------------------------------|---------------------------------|
G|------------------------------------|---------------------------------|
D|-----3---2---2-------------------2--|--1---2---------------4---4------|
A|-----5---3---3-------------------3--|--2---3---------------5---5------|
E|-----------------0---0---0---0------|----------0---0---0-----------0--|
 |
e|------------------------------------|---------------------------------|
B|-----7---5---5-------------------5--|--4---5---------------7---7------|
G|-----7---5---5-------------------5--|--4---5---------------7---7------|
D|------------------------------------|---------------------------------|
A|------------------------------------|---------------------------------|
E|------------------------------------|---------------------------------|
 


      Em            A9/C#            Em            G6
e|----0-------------0-------------|--0-------------0------------------|
B|----0-------------0-------------|--0-------------0------------------|
G|----0-------------0-------------|--0-------------0------------------|
D|----5-------------2-------------|--5-------------9------------------|
A|----7-------------4-------------|--7-------------10-----------------|
E|--------------------------------|-----------------------------------| 
 |
e|--------------------------------|-----------------------------------|
B|--------------------------------|-----------------------------------|
G|----------0-------------2-------|--------0-------4b5r4p2p0----------|
D|----2--2-----2----2--2-----2----|--2--2-----2--------------4-2------|
A|--------------------------------|------------------------------3/5--|
E|--------------------------------|-----------------------------------|
 |
e|-------7-5-----------7-5--------|--------------5---7-5--------------|
B|-----------8-7-5---------8-7-5--|--------5-7-8---8-----8-7-7---5----|
G|--------------------------------|------7----------------------------|
D|--------------------------------|-----------------------------------|
A|--------------------------------|-----------------------------------|
E|--------------------------------|-----------------------------------|


      rake          rake            rake          rake                |-------palm mute-------
      Em            A9/C#           Em            G6                   Em
e|----0-------------0------------|--0-------------0-----------------|--------------------------|
B|----0-------------0------------|--0-------------0-----------------|--------------------------|
G|----0-------------0------------|--0-------------0-----------------|--------------------------|
D|----5-------------2------------|--5-------------9-----------------|--------------------------|
A|----7-------------4------------|--7-------------10-------9--------|--7--7--7--7--7--7--7--7--|
E|-------------------------------|----------------------------------|--0--0--0--0--0--0--0--0--|
 |
e|-------------------------------|----------------------------------|--------------------------|
B|-------------------------------|----------------------------0h1---|--0-----------------------|
G|----------0-------------2------|--------0---------------0h2-------|--------------------------|
D|----2--2-----2----2--2-----2---|--2--2-----2------0h2/4-----------|--------------------------|
A|-------------------------------|----------------3-----------------|--------------------------|
E|-------------------------------|----------------------------------|--------------------------|
 |
e|---------------------5---------|-----7-5-----5--------------------|--------------------------|
B|-------5-7-8--7--------8-7--5--|---------8-7---8-7-5---5-7-8-7-5--|--5-----------------------|
G|-------------------------------|---------------------7------------|--------------------------|
D|-------------------------------|----------------------------------|--------------------------|
A|-------------------------------|----------------------------------|--------------------------|
E|-------------------------------|----------------------------------|--------------------------|


    -------------------------|
                                  Em            A9/C#
e|-----------------------------|--0-------------0---------------|
B|-----------------------------|--0-------------0---------------|
G|-----------------------------|--0-------------0---------------|
D|-----------------------------|--5-------------2---------------|
A|----7--7--7--7--7--7--7--7—--|--7-------------4---------------|
E|----0--0--0--0--0--0--0--0---|--------------------------------|
 |
e|-----------------------------|--------------------------------|
B|-----------------------------|--------------------------------|
G|-----------------------------|--------0-------------2---------|
D|-----------------------------|--2--2-----2----2--2-----2------|
A|-----------------------------|--------------------------------|
E|-----------------------------|--------------------------------|
 |
e|-----------------------------|--10------12----10--------------|
B|-----------------------------|-------12----------12--12-12-12-|
G|-----------------------------|--------------------------------|
D|-----------------------------|--------------------------------|
A|-----------------------------|--------------------------------|
E|-----------------------------|--------------------------------|



      Em                G6                    Em            A9/C#
e|----0-----------------0------------------|--0-------------0-----------|
B|----0-----------------0------------------|--0-------------0-----------|
G|----0-----------------0------------------|--0-------------0-----------|
D|----5-----------------9------------------|--5-------------2-----------|
A|----7-----------------10-----------------|--7-------------4-----------|
E|-----------------------------------------|----------------------------|
 |
e|-----------------------------------------|----------------------------|
B|-----------------------------------------|----------------------------|
G|----------0-----------4b5r4p2p0----------|--------0-------------2-----|
D|----2--2-----2------------------4-2------|--2--2-----2----2--2-----2--|
A|------------------------------------3/5--|----------------------------|
E|-----------------------------------------|----------------------------|
 |
e|-----------------------------------------|-------------5-----5--------|
B|----12/(10)-8-10-10-8--7------------5----|-------5-7-8---------8-7-5--|
G|-----------------------------------------|-----7----------------------|
D|-----------------------------------------|----------------------------|
A|-----------------------------------------|----------------------------|
E|-----------------------------------------|----------------------------|


                                                                |--------palm mute-------
      Em            G6                   Em      +               Em
e|----0-------------0-----------------|------0---12------------|--------------------------|
B|----0-------------0-----------------|--0---------------------|--------------------------|
G|----0-------------0-----------------|--0---------------------|--------------------------|
D|----5-------------9-----------------|--5---------------------|--------------------------|
A|----7-------------10----------------|--7---------------------|--7—-7-—7--7--7--7--7--7--|
E|------------------------------------|--0---------------------|--0--0--0--0--0--0--0--0--|
 |
e|------------------------------------|----0-3-----------------|--------------------------|
B|------------------------------0h1---|--0---------------------|--------------------------|
G|----------0---------------0h2-------|------------------------|--------------------------|
D|----2--2-----2------0h2/4-----------|------------------------|--------------------------|
A|------------------3-----------------|------------------------|--------------------------|
E|------------------------------------|------------------------|--------------------------|
 |
e|----7-5-----5-----------------------|------------------------|--------------------------|
B|--------8-7---8-7-5---5-7-8-7--5-5--|--5---------------------|--------------------------|
G|--------------------7---------------|------------------------|--------------------------|
D|------------------------------------|------------------------|--------------------------|
A|------------------------------------|------------------------|--------------------------|
E|------------------------------------|------------------------|--------------------------|


    ----------------------------------------------------

e|----------------------------|--------------------------|
B|----------------------------|--------------------------|
G|----------------------------|--------------------------|
D|----------------------------|--------------------------|
A|----7--7--7--7--7--7--7--7--|--7--7--7--7--7--7--7--7--|
E|----0--0--0--0--0--0--0--0--|--0--0--0--0--0--0--0--0--|
 |    rake
e|----x-----------------------|--------------------------|
B|----x-----------------------|--------------------------|
G|----x-----------------------|--------------------------|
D|----x-----------------------|--------------------------|
A|----x-----------------------|--------------------------|
E|----x-----------------------|--------------------------|

  Verse 3
    ---------------------------------------------------|

e|----------------------------|--------------------------|
B|----------------------------|--------------------------|
G|----------------------------|--------------------------|
D|----------------------------|--------------------------|
A|----7--7--7--7--7--7--7--7--|--7--7--7--7--7--7--7--7--|
E|----0--0--0--0--0--0--0--0--|--0--0--0--0--0--0--0--0--|
 |
e|----------------------------|--------------------------|
B|----------------------------|--------------------------|
G|----------------------------|--------------------------|
D|----------------------------|--------------------------|
A|----------------------------|--------------------------|
E|----------------------------|--------------------0--0--|


      ~~~ ~~~                              |-------------------- palm mute -------------------|
             G/E A/E G/E   A/E  G/E  Em     Em
e|----------------------|------------0---|--------------------------|--------------------------|
B|----------------------|------------0—--|--------------------------|--------------------------|
G|------------4/6----4--|--6----4----0---|--------------------------|--------------------------|
D|------------5/7----5--|--7----5----2---|--------------------------|--------------------------|
A|----7--7--—-5/7----5--|--7----5----2—--|--7--7—-7--7—-7--7--7--7--|--7--7—-7--7—-7--7--7--7--|
E|----0--0--—-----------|------------0---|--0--0—-0--0--0--0—-0--0--|--0--0—-0--0--0--0—-0--0--|
 |
e|-----------7-9-----7--|--9----7--------|--------------------------|--------------------------|
B|-----------8-10----8--|--10---8--------|--------------------------|--------------------------|
G|----------------------|------------0---|--------------------------|--------------------------|
D|----------------------|------------0---|--------------------------|--------------------------|
A|----------------------|------------2-—-|--------------------------|--------------------------|
E|----0--0--------------|----------------|--------------------------|--------------------0--0--|


      ~~~ ~~~
            G/E A/E G/E      A/E   G/E     Em     G                    A
e|----------------------|------------------0---|--------------------------|
B|----------------------|------------------0—--|--------------------------|
G|------------4/6----4--|----6------4------0---|--4--4--4--4--4--4--4--6--|
D|------------5/7----5--|----7------5------2---|--5--5--5--5--5--5--5--7--|
A|----7--7--—-5/7----5--|----7------5------2—--|--5--5--5--5--5--5--5--7--|
E|----0--0--—-----------|------------------0---|--3--3--3--3--3--3--3--5--|
 |
e|-----------7-9-----7--|----9------7----------|--------------------------|
B|-----------8-10----8--|----10-----8----------|--------------------------|
G|----------------------|------------------0---|--4--4--4--4--4--4--4--6--|
D|----------------------|------------------0---|--5--5--5--5--5--5--5--7--|
A|----------------------|------------------2-—-|--5--5--5--5--5--5--5--7--|
E|----0--0--------------|----------------------|--3--3--3--3--3--3--3--5--|



                                    Em
e|-------------------------------|--0--------------------|--------------------------|
B|-------------------------------|--0--------------------|--------------------------|
G|----(6)------------------------|--0--------------------|--------------------------|
D|----(7)------------------------|--2--------------------|--5--4--------2-----------|
A|----(7)--7--7--7--7--7--7------|--2--------------------|--------2--5-----2--5--3--|
E|----(5)--5--5--5--5--5--5------|--0--------------------|--------------------------|
 |
e|-------------------------------|-----------------------|--------------------------|
B|-------------------------------|-----------------------|--------------------------|
G|-------------------------------|-----------------------|--------------------------|
D|-------------------------------|-----------------------|--------------------------|
A|-------------------------------|-----------------------|--------------------------|
E|-------------------------------|-----------------------|--------------------------|




e|-----------------------------|
B|-----------------------------|
G|-----------------------------|
D|----------------------/5--4--|
A|----3--2-----------2---------|
E|----------0--2--3------------|
 |
e|-----------------------------|
B|-----------------------------|
G|-----------------------0-----|
D|--------------------------4--|
A|----3--2-----------2---------|
E|----------0--2--3------------|


 
      Em Ebdim Em                            F#dim?E         Em      D
e|------------------------------------|---------------------------------|
B|------------------------------------|---------------------------------|
G|------------------------------------|---------------------------------|
D|----5---4---5-----------9---9---9---|------7---7---7-------5---5---4--|
A|----7---5---7-----------10--10--10--|------9---9---9-------7—--7--—5--|
E|----------------0---0---------------|--0---------------0--------------|
 |
e|------------------------------------|---------------------------------|
B|----8---7---8-----------12--12--12--|------10--10—-10------8---8---7--|
G|----9---8---9-----------12--12--12--|------11--11--11------9---9---7--|
D|------------------------------------|---------------------------------|
A|------------------------------------|---------------------------------|
E|------------------------------------|---------------------------------|



      C                                 B   C               D
e|-----------------------------------|---------------------------------|
B|-----------------------------------|---------------------------------|
G|-----------------------------------|---------------------------------|
D|----3---2---2-------------------2--|--1---2---------------4---4------|
A|----5---3---3-------------------3--|--2---3---------------5---5------|
E|----------------0---0---0---0------|----------0---0---0-----------0--|
 |
e|-----------------------------------|---------------------------------|
B|----7---5---5-------------------5--|--4---5---------------7---7------|
G|----7---5---5-------------------5--|--4---5---------------7---7------|
D|-----------------------------------|---------------------------------|
A|-----------------------------------|---------------------------------|
E|-----------------------------------|---------------------------------|


 
      Em Ebdim Em                            F#dim?E         Em      D
e|------------------------------------|---------------------------------|
B|------------------------------------|---------------------------------|
G|------------------------------------|---------------------------------|
D|----5---4---5-----------9---9---9---|------7---7---7-------5---5---4--|
A|----7---5---7-----------10--10--10--|------9---9---9-------7—--7--—5--|
E|----------------0---0---------------|--0---------------0--------------|
 |
e|------------------------------------|---------------------------------|
B|----8---7---8-----------12--12--12--|------10--10—-10------8---8---7--|
G|----9---8---9-----------12--12--12--|------11--11--11------9---9---7--|
D|------------------------------------|---------------------------------|
A|------------------------------------|---------------------------------|
E|------------------------------------|---------------------------------|



      C                                 B   C               D
e|-----------------------------------|---------------------------------|
B|-----------------------------------|---------------------------------|
G|-----------------------------------|---------------------------------|
D|----3---2---2-------------------2--|--1---2---------------4---4------|
A|----5---3---3-------------------3--|--2---3---------------5---5------|
E|----------------0---0---0---0------|----------0---0---0-----------0--|
 |
e|-----------------------------------|---------------------------------|
B|----7---5---5-------------------5--|--4---5---------------7---7------|
G|----7---5---5-------------------5--|--4---5---------------7---7------|
D|-----------------------------------|---------------------------------|
A|-----------------------------------|---------------------------------|
E|-----------------------------------|---------------------------------|



      Em Ebdim Em                            F#dim?E         Em      D
e|------------------------------------|---------------------------------|
B|------------------------------------|---------------------------------|
G|------------------------------------|---------------------------------|
D|----5---4---5-----------9---9---9---|------7---7---7-------5---5---4--|
A|----7---5---7-----------10--10--10--|------9---9---9-------7—--7--—5--|
E|----------------0---0---------------|--0---------------0--------------|
 |
e|------------------------------------|---------------------------------|
B|----8---7---8-----------12--12--12--|------10--10—-10------8---8---7--|
G|----9---8---9-----------12--12--12--|------11--11--11------9---9---7--|
D|------------------------------------|---------------------------------|
A|------------------------------------|---------------------------------|
E|------------------------------------|---------------------------------|



      C                                 B   C               D
e|-----------------------------------|---------------------------------|
B|-----------------------------------|---------------------------------|
G|-----------------------------------|---------------------------------|
D|----3---2---2-------------------2--|--1---2---------------4---4------|
A|----5---3---3-------------------3--|--2---3---------------5---5------|
E|----------------0---0---0---0------|----------0---0---0-----------0--|
 |
e|-----------------------------------|---------------------------------|
B|----7---5---5-------------------5--|--4---5---------------7---7------|
G|----7---5---5-------------------5--|--4---5---------------7---7------|
D|-----------------------------------|---------------------------------|
A|-----------------------------------|---------------------------------|
E|-----------------------------------|---------------------------------|



      Em Ebdim Em                            F#dim?E         Em      D
e|------------------------------------|---------------------------------|
B|------------------------------------|---------------------------------|
G|------------------------------------|---------------------------------|
D|----5---4---5-----------9---9---9---|------7---7---7-------5---5---4--|
A|----7---5---7-----------10--10--10--|------9---9---9-------7—--7--—5--|
E|----------------0---0---------------|--0---------------0--------------|
 |
e|------------------------------------|---------------------------------|
B|----8---7---8-----------12--12--12--|------10--10—-10------8---8---7--|
G|----9---8---9-----------12--12--12--|------11--11--11------9---9---7--|
D|------------------------------------|---------------------------------|
A|------------------------------------|---------------------------------|
E|------------------------------------|---------------------------------|



      C                                 B   C               D
e|-----------------------------------|---------------------------------|
B|-----------------------------------|---------------------------------|
G|-----------------------------------|---------------------------------|
D|----3---2---2-------------------2--|--1---2---------------4---4------|
A|----5---3---3-------------------3--|--2---3---------------5---5------|
E|----------------0---0---0---0------|----------0---0---0-----------0--|
 |
e|-----------------------------------|---------------------------------|
B|----7---5---5-------------------5--|--4---5---------------7---7------|
G|----7---5---5-------------------5--|--4---5---------------7---7------|
D|-----------------------------------|---------------------------------|
A|-----------------------------------|---------------------------------|
E|-----------------------------------|---------------------------------|



      Em Ebdim Em                            F#dim?E         Em      D
e|------------------------------------|---------------------------------|
B|------------------------------------|---------------------------------|
G|------------------------------------|---------------------------------|
D|----5---4---5-----------9---9---9---|------7---7---7-------5---5---4--|
A|----7---5---7-----------10--10--10--|------9---9---9-------7—--7--—5--|
E|----------------0---0---------------|--0---------------0--------------|
 |
e|------------------------------------|---------------------------------|
B|----8---7---8-----------12--12--12--|------10--10—-10------8---8---7--|
G|----9---8---9-----------12--12--12--|------11--11--11------9---9---7--|
D|------------------------------------|---------------------------------|
A|------------------------------------|---------------------------------|
E|------------------------------------|---------------------------------|



      C                                 B   C               D
e|-----------------------------------|---------------------------------|
B|-----------------------------------|---------------------------------|
G|-----------------------------------|---------------------------------|
D|----3---2---2-------------------2--|--1---2---------------4---4------|
A|----5---3---3-------------------3--|--2---3---------------5---5------|
E|----------------0---0---0---0------|----------0---0---0-----------0--|
 |
e|-----------------------------------|---------------------------------|
B|----7---5---5-------------------5--|--4---5---------------7---7------|
G|----7---5---5-------------------5--|--4---5---------------7---7------|
D|-----------------------------------|---------------------------------|
A|-----------------------------------|---------------------------------|
E|-----------------------------------|---------------------------------|



      Em Ebdim Em                            F#dim?E         Em      D
e|------------------------------------|---------------------------------|
B|------------------------------------|---------------------------------|
G|------------------------------------|---------------------------------|
D|----5---4---5-----------9---9---9---|------7---7---7-------5---5---4--|
A|----7---5---7-----------10--10--10--|------9---9---9-------7—--7--—5--|
E|----------------0---0---------------|--0---------------0--------------|
 |
e|------------------------------------|---------------------------------|
B|----8---7---8-----------12--12--12--|------10--10—-10------8---8---7--|
G|----9---8---9-----------12--12--12--|------11--11--11------9---9---7--|
D|------------------------------------|---------------------------------|
A|------------------------------------|---------------------------------|
E|------------------------------------|---------------------------------|



      C                                 B   C               D
e|-----------------------------------|---------------------------------|
B|-----------------------------------|---------------------------------|
G|-----------------------------------|---------------------------------|
D|----3---2---2-------------------2--|--1---2---------------4---4------|
A|----5---3---3-------------------3--|--2---3---------------5---5------|
E|----------------0---0---0---0------|----------0---0---0-----------0--|
 |
e|-----------------------------------|---------------------------------|
B|----7---5---5-------------------5--|--4---5---------------7---7------|
G|----7---5---5-------------------5--|--4---5---------------7---7------|
D|-----------------------------------|---------------------------------|
A|-----------------------------------|---------------------------------|
E|-----------------------------------|---------------------------------|



      Em Ebdim Em                            F#dim?E         Em      D
e|------------------------------------|---------------------------------|
B|------------------------------------|---------------------------------|
G|------------------------------------|---------------------------------|
D|----5---4---5-----------9---9---9---|------7---7---7-------5---5---4--|
A|----7---5---7-----------10--10--10--|------9---9---9-------7—--7--—5--|
E|----------------0---0---------------|--0---------------0--------------|
 |
e|------------------------------------|---------------------------------|
B|----8---7---8-----------12--12--12--|------10--10—-10------8---8---7--|
G|----9---8---9-----------12--12--12--|------11--11--11------9---9---7--|
D|------------------------------------|---------------------------------|
A|------------------------------------|---------------------------------|
E|------------------------------------|---------------------------------|



      C                                 B   C               D
e|-----------------------------------|---------------------------------|
B|-----------------------------------|---------------------------------|
G|-----------------------------------|---------------------------------|
D|----3---2---2-------------------2--|--1---2---------------4---4------|
A|----5---3---3-------------------3--|--2---3---------------5---5------|
E|----------------0---0---0---0------|----------0---0---0-----------0--|
 |
e|-----------------------------------|---------------------------------|
B|----7---5---5-------------------5--|--4---5---------------7---7------|
G|----7---5---5-------------------5--|--4---5---------------7---7------|
D|-----------------------------------|---------------------------------|
A|-----------------------------------|---------------------------------|
E|-----------------------------------|---------------------------------|



      Em Ebdim Em                            F#dim?E         Em      D
e|------------------------------------|---------------------------------|
B|------------------------------------|---------------------------------|
G|------------------------------------|---------------------------------|
D|----5---4---5-----------9---9---9---|------7---7---7-------5---5---4--|
A|----7---5---7-----------10--10--10--|------9---9---9-------7—--7--—5--|
E|----------------0---0---------------|--0---------------0--------------|
 |
e|------------------------------------|---------------------------------|
B|----8---7---8-----------12--12--12--|------10--10—-10------8---8---7--|
G|----9---8---9-----------12--12--12--|------11--11--11------9---9---7--|
D|------------------------------------|---------------------------------|
A|------------------------------------|---------------------------------|
E|------------------------------------|---------------------------------|



      C                                 B   C               D
e|-----------------------------------|---------------------------------|
B|-----------------------------------|---------------------------------|
G|-----------------------------------|---------------------------------|
D|----3---2---2-------------------2--|--1---2---------------4---4------|
A|----5---3---3-------------------3--|--2---3---------------5---5------|
E|----------------0---0---0---0------|----------0---0---0-----------0--|
 |
e|-----------------------------------|---------------------------------|
B|----7---5---5-------------------5--|--4---5---------------7---7------|
G|----7---5---5-------------------5--|--4---5---------------7---7------|
D|-----------------------------------|---------------------------------|
A|-----------------------------------|---------------------------------|
E|-----------------------------------|---------------------------------|



      Em Ebdim Em                            F#dim?E         Em      D
e|------------------------------------|---------------------------------|
B|------------------------------------|---------------------------------|
G|------------------------------------|---------------------------------|
D|----5---4---5-----------9---9---9---|------7---7---7-------5---5---4--|
A|----7---5---7-----------10--10--10--|------9---9---9-------7—--7--—5--|
E|----------------0---0---------------|--0---------------0--------------|
 |
e|------------------------------------|---------------------------------|
B|----8---7---8-----------12--12--12--|------10--10—-10------8---8---7--|
G|----9---8---9-----------12--12--12--|------11--11--11------9---9---7--|
D|------------------------------------|---------------------------------|
A|------------------------------------|---------------------------------|
E|------------------------------------|---------------------------------|



      C                                 B   C               D
e|-----------------------------------|---------------------------------|
B|-----------------------------------|---------------------------------|
G|-----------------------------------|---------------------------------|
D|----3---2---2-------------------2--|--1---2---------------4---4------|
A|----5---3---3-------------------3--|--2---3---------------5---5------|
E|----------------0---0---0---0------|----------0---0---0-----------0--|
 |
e|-----------------------------------|---------------------------------|
B|----7---5---5-------------------5--|--4---5---------------7---7------|
G|----7---5---5-------------------5--|--4---5---------------7---7------|
D|-----------------------------------|---------------------------------|
A|-----------------------------------|---------------------------------|
E|-----------------------------------|---------------------------------|



      Em Ebdim Em                            F#dim?E         Em      D
e|------------------------------------|---------------------------------|
B|------------------------------------|---------------------------------|
G|------------------------------------|---------------------------------|
D|----5---4---5-----------9---9---9---|------7---7---7-------5---5---4--|
A|----7---5---7-----------10--10--10--|------9---9---9-------7—--7--—5--|
E|----------------0---0---------------|--0---------------0--------------|
 |
e|------------------------------------|---------------------------------|
B|----8---7---8-----------12--12--12--|------10--10—-10------8---8---7--|
G|----9---8---9-----------12--12--12--|------11--11--11------9---9---7--|
D|------------------------------------|---------------------------------|
A|------------------------------------|---------------------------------|
E|------------------------------------|---------------------------------|



      C                                 B   C               D
e|-----------------------------------|---------------------------------|
B|-----------------------------------|---------------------------------|
G|-----------------------------------|---------------------------------|
D|----3---2---2-------------------2--|--1---2---------------4---4------|
A|----5---3---3-------------------3--|--2---3---------------5---5------|
E|----------------0---0---0---0------|----------0---0---0-----------0--|
 |
e|-----------------------------------|---------------------------------|
B|----7---5---5-------------------5--|--4---5---------------7---7------|
G|----7---5---5-------------------5--|--4---5---------------7---7------|
D|-----------------------------------|---------------------------------|
A|-----------------------------------|---------------------------------|
E|-----------------------------------|---------------------------------|



      Em Ebdim Em                            F#dim?E         Em      D
e|------------------------------------|---------------------------------|
B|------------------------------------|---------------------------------|
G|------------------------------------|---------------------------------|
D|----5---4---5-----------9---9---9---|------7---7---7-------5---5---4--|
A|----7---5---7-----------10--10--10--|------9---9---9-------7—--7--—5--|
E|----------------0---0---------------|--0---------------0--------------|
 |
e|------------------------------------|---------------------------------|
B|----8---7---8-----------12--12--12--|------10--10—-10------8---8---7--|
G|----9---8---9-----------12--12--12--|------11--11--11------9---9---7--|
D|------------------------------------|---------------------------------|
A|------------------------------------|---------------------------------|
E|------------------------------------|---------------------------------|



      C                                 B   C               D
e|-----------------------------------|---------------------------------|
B|-----------------------------------|---------------------------------|
G|-----------------------------------|---------------------------------|
D|----3---2---2-------------------2--|--1---2---------------4---4------|
A|----5---3---3-------------------3--|--2---3---------------5---5------|
E|----------------0---0---0---0------|----------0---0---0-----------0--|
 |
e|-----------------------------------|---------------------------------|
B|----7---5---5-------------------5--|--4---5---------------7---7------|
G|----7---5---5-------------------5--|--4---5---------------7---7------|
D|-----------------------------------|---------------------------------|
A|-----------------------------------|---------------------------------|
E|-----------------------------------|---------------------------------|




Intro

| Em               | Em               | Em7              | Em7              |

| A/E              | A/E              | Em               | Em               |

| Em               | Em               |


Verse 1

Em
Now when the day goes to sleep
Em                         G/E A/E  G/E  A/E  G/E  Em
And the full moon looks
Em
And the night is so black
Em                         G/E A/E  G/E  A/E  G/E  Em
That the darkness cooks
G
But you come creepin' around
A                           Em   Fsus2
Makin' me do things I don't wanna do


| Em Ebdim Em     | Ebdim Em         | Em Ebdim Em      | F#dim Em  D      |


Verse 2

Em
Can't believe that you need
Em                G/E A/E  G/E  A/E  G/E  Em
My love so bad
Em
You come sneakin' around 
Em                        G/E A/E  G/E  A/E  G/E  Em
Tryin' to drive me mad
G
Bustin' in all my dreams
A                            Em   Fsus2
Makin' me see things I don't wanna see



| Em Ebdim Em      | F#dim   Em    D  | C                |   B  C    D      |

| Em Ebdim Em      | F#dim   Em    D  | Em Ebdim Em      |   B  C    D      |

| Em      A9/C#    | Em      G6       | Em      A9/C#    | Em      G6       |

| Em               | Em               | Em Ebdim Em      | F#dim   Em    D  |

| C                |   B  C    D      | Em Ebdim Em      | F#dim   Em    D  |

| Em Ebdim Em      |   B  C    D      | Em      A9/C#    | Em      G6       | 

| Em      A9/C#    | Em      G6       | Em               | Em               |

| Em               | Em               |



Verse 3

Em
'Cause you're the Green Manalishi
Em                            G/E A/E  G/E  A/E  G/E  Em
With the two-pronged crown
Em
All my tryin' is up
Em                             G/E A/E  G/E  A/E  G/E  Em
All you're bringin' is down
G
Just takin' my love then slippin' away
A                                                       Em
Leavin' me here just tryin' to keep from following you


|                  |                  |

Outro

| Em Ebdim Em      | F#dim/E  Em   D  |   C              |   B  C    D      |

| Em Ebdim Em      | F#dim/E  Em   D  |   C              |   B  C    D      |

| Em Ebdim Em      | F#dim/E  Em   D  |   C              |   B  C    D      |

| Em Ebdim Em      | F#dim/E  Em   D  |   C              |   B  C    D      |

| Em Ebdim Em      | F#dim/E  Em   D  |   C              |   B  C    D      |

| Em Ebdim Em      | F#dim/E  Em   D  |   C              |   B  C    D      |

| Em Ebdim Em      | F#dim/E  Em   D  |   C              |   B  C    D      |

| Em Ebdim Em      | F#dim/E  Em   D  |   C              |   B  C    D      |

| Em Ebdim Em      | F#dim/E  Em   D  |   C              |   B  C    D      |

| Em Ebdim Em      | F#dim/E  Em   D  |   C              |   B  C    D      |

| Em Ebdim Em      | F#dim/E  Em   D  |   C              |   B  C    D      |





| /  slide up
| \  slide down
| h  hammer-on
| p  pull-off
| ~  vibrato
| +  harmonic
| x  Mute note

================================================================================== 15 August 2007

            
            
Suggest correction
Creating personal tab
Creating personal tab
You can edit any tab online and save it as your Personal.

You can edit, replace or remove any tab part or add personal notes – all changes will be seen only by you.

Personal tabs can be accessed anytime from any device, even offline.
Learn more »
Give kudos to tab author, rate the tab!
1 2 3 4 5
comments
print report bad tab
guest
You may want to rate the tab now too:
select rating
Wanna post a correction for this tab? Suggest correction