Oops, an error
Loading. Please wait.

Warm Ways Bass Tab

25 views 1 this week
no commentswrite comment
1 2 3 4 5
3 more votes to show rating
add to favorites
launch autoscroll
font size
0
reset
guitar tuner
Autoscroll
slow
fast
+/-
esc
set tempo
stop
Help us to improve Ultimate-Guitar.com Take our survey!
×
Author
Difficulty
novice
[Intro]

G|-----------------|-----------------|-------------|----------------|
D|--------8--\-----|-------8--\----3-|-1---1-1-----|-1-1------------|
A|------5----------|-----5------1/---|-----------1-|--------6-5-6-6-|
E|--6-6--------1-/-|-6-6-------------|-------------|------6---------|


G|----------------|-----------------|-------------|-------------|
D|-------8--\-----|-------8--\----3-|-1---1-1-----|-1-----1-----|
A|-----5----------|-----5------1/---|-----------1-|-----1-----6-|
E|-6-6--------1-/-|-6-6-------------|-------------|-------------|


[Verse 1]

G|---------------|---------------|-------------|-------------| (x2)
D|-------8--8--8-|-------8--8--8-|-------------|-------------|
A|-----5---------|-----5---------|-6---6-6---6-|-6---6-6---6-|
E|-6-6-----------|-6-6-----------|-------------|-------------|


G|---------------|---------------|-------------|--------------| 
D|-------8--8--8-|-------8--8--8-|-------------|--------------|
A|-----5---------|-----5---------|-6---6-5---5-|-3----3-3-5-6-|
E|-6-6-----------|-6-6-----------|-------------|--------------|


G|---------------|-----------------|--------------|---------------|
D|-3-----3-3-3---|-----------------|--------------|---------------|
A|-----3-------3-|-6---3-6\5-3-5-3-|--------------|-----------3-5-|
E|---------------|-----------------|-6---6-6-6--6-|-6---6-6-6-----|


[Chorus]

G|-------------|-------------|-------------|----------|
D|-------5---5-|-------------|-------------|----------|
A|-6---6-------|-3---3-------|-------------|----------|
E|-------------|-------6---3-|-4---4-4---4-|-4---4-4--|


G|-------------|-------------|-------------|----------|
D|-------5---5-|-------------|-------------|----------|
A|-6---6-------|-3---3-------|-------------|----------|
E|-------------|-------6---3-|-4---4-4---4-|-4--------|


G|-------------|-------------|------|-----------|
D|-------5---5-|-------------|------|------6----|
A|-6---6-------|-3---3-------|------|----6------|
E|-------------|-------6---3-|-4----|-4---------|


G|------------------|------------------|
D|------------------|------------------|
A|--6-----6--3------|--6-----6--3------|
E|-------------4----|-------------4----|


[Verse 2]

G|-----------------|----------------|--------------|-------------| 
D|---------8--8--8-|-------8--8-----|--------------|-------------|
A|-------5---------|-----5--------5-|-6---6-6-6--6-|-6---6-6---6-|
E|-6-6-6-----------|-6-6--------6---|--------------|-------------|


G|---------------|----------------|-------------|-------------| 
D|-------8--8--8-|-------8--8-----|-------------|-------------|
A|-----5---------|-----5--------5-|-6---6--6----|-6---6-6---6-|
E|-6-6-----------|-6-6--------6---|-----------6-|-------------|


G|---------------|----------------|-------------|--------------| 
D|-------8--8--8-|-------8--8-----|-------------|--------------|
A|-----5---------|-----5--------5-|-6---6-5---5-|-3----3-3-5-6-|
E|-6-6-----------|-6-6--------6---|-------------|--------------|


G|--------------|------------------|-------------|---------------|
D|-3-----3-3----|------------------|-------------|---------------|
A|-----3------3-|-6----(6-5-3)-5-3-|-------------|-----------3-5-|
E|--------------|------------------|-6---6-6---6-|-6--6--6-6-----|


[Chorus]

G|-------------|-------------|-------------|----------|
D|-------5---5-|-------------|-------------|----------|
A|-6---6-------|-3---3-------|-------------|----------|
E|-------------|-------6---3-|-4---4-4---4-|-4---4-4--|


G|-------------|-------------|-------------|--------------|
D|-------5---5-|-------------|-------------|--------------|
A|-6---6-------|-3---3-------|-------------|----------3-5-|
E|-------------|-------6---3-|-4---4-4---4-|-4---4-4------|


G|-------------|-------------|------------------|
D|-------5---5-|-------------|-------------6----|
A|-6---6-------|-3---3-------|------------------|
E|-------------|-------6---3-|-4---4-4---7------|


G|-----------------|------------------|
D|-----------------|------------------|
A|--6------3-------|--6-----6--3------|
E|-----------6-4---|-------------4----|


[Outro]

G|------------------|--------------|-----------------|--------------|
D|--------6p5-------|--------------|-------6p5-------|--------------|
A|--6---6-----6-3---|----------3---|-6---6-----6-3---|----------3---|
E|----------------6-|-4----4-6---6-|---------------6-|-4----4-6---6-|


G|-----------------|--------------|----------------|----------------|
D|-------6p5-------|--------------|----------------|----------------|
A|-6---6-----6-3---|----------3---|-6--------------|----------------|
E|---------------6-|-4----4-6---6-|----------------|----------------|


G|----------------|----------------|----------------|----------------|----------------|
D|----------------|----------------|----------------|----------------|----------------|
A|----------------|----------------|----------------|----------------|--6-------------|
E|----------------|----------------|----------------|----------------|----------------|



*********************************

| / : slide up
| \ : slide down
| p : pull-off
| ( ) : fast

*********************************

in regular sequence!
Suggest correction
Give kudos to tab author, rate the tab!
1 2 3 4 5
comments
print report bad tab
guest
You may want to rate the tab now too:
select rating
Wanna post a correction for this tab? Suggest correction