Oops, an error
Loading. Please wait.

Warm Ways chords

version 3
version 3

Whole song

  • Chord Version 1 is close but not very detailed, ve... Show more
185 views 1 this week
no commentswrite comment
1 2 3 4 5
2 more votes to show rating
add to favorites
×
Save as Personal and add changes to this tab that will be seen only by you. Learn more ›
×
You can save this tab as Personal to edit and correct it or add notes. All changes will be seen only by you. Learn more »
launch autoscroll
font size
0
reset
transpose
0
reset
simplify chords
display chords
guitar tuner
edit
Autoscroll
slow
fast
+/-
esc
set tempo
stop
About this tab version
Chord Version 1 is close but not very detailed, version 2 is too simplified, has missing chords and some wrong. Was this info helpful? Yes No
Strumming
There is no strumming pattern for this song yet. and get +5 IQ
Song: Warm ways
Artist: Fleetwood Mac
Composer: Christine McVie
Album: Fleetwood Mac
Tabbed by DJ
22nd June 2015

CAPO: 1st fret (Sounds in the key of Bb)

Chord names and fret positions are relative to the capo:
A6     = x07670   D/C# = x40232   A7   = x02223   G      = 320003
A7sus2 = x05450   Bm   = x24432   A6   = x02222   Gm6/Bb = x10330
D      = xx0232   Em   = xx2000   A    = x02220   D4     = x00233
Dmaj7  = xx0222   Em/D = xx0000   A/F# = 202220   Dsus2  = xx0230
D6     = xx0202   A *  = x02225   Bm/A = x04432   Gm6    = 355353

*****************************************************************

[Intro]

     A6   A7sus2  A6   A7sus2  D    Dmaj7   D6
||:  /  /  /  / | /  /  /  / | /  /  /  / | /  /  /  / :|| [x2]


[Verse 1]
 A6   A7sus2  A6  A7sus2       D   Dmaj7     D6
Sleep------        easy by my side-------, | /  /  /  / |
A6   A7sus2   A6        A7sus2           D   Dmaj7    D6
In ---to         gentle slumber you can hide------, | /  /  /  / |
A6   A7sus2   A6        A7sus2          D   D/C#         Bm
I----------,      I'm  waiting for the sun    ...to come up,
         Em         Em/D               A *      A7    A6    A
I can't sleep----,      with your warm---  ways-----!

e |------------|
B |------------|
G |------------|
D |------------|
A |--0--2--4---|
E |------------|


[Chorus]
D         A/F#  Bm       Bm/A   G
   For - ever,     for - ever love,
D         A/F#  Bm       Bm/A   G
   To - gether,    to - gether love,

  D    A/F#    Bm    Bm/A
  Oo----------------------!
| /  /  /  / | /  /  /  / |

      G           G/D G/A   Gm6/Bb
e |---------3-------------|---0--------|
B |---3---3---------------|---3--------|
G |---0---------0---------|---3--------|
D |-----0----------0------|---0--------|
A |-------------------0---|---1--------|
E |---3-------------------|------------|

     D     D4    D    Dsus2  Gm6
||:  /  /__/  /__/  /__/   |  /  /  /  /  :|| [x2]


[Verse 2]
 A6   A7sus2  A6           A7sus2       D   Dmaj7    D6
You---------      made me a woman to - night-----, | /  /  /  / |
 A6   A7sus2  A6           A7sus2    D   Dmaj7    D6
Dream-------     until the morning light------, | /  /  /  / |
A6    A7sus2  A6      A7sus2           D   D/C#         Bm
I-----------     I'm  waiting for the sun    ...to come up,
         Em         Em/D               A *      A7    A6    A
I can't sleep----,      with your warm---  ways-----!

e |------------|
B |------------|
G |------------|
D |------------|
A |--0--2--4---|
E |------------|


[Chorus]
D         A/F#  Bm       Bm/A   G
   For - ever,     for - ever love,
D         A/F#  Bm       Bm/A   G
   To - gether,    to - gether love,

  D    A/F#    Bm    Bm/A
  Oo----------------------!
| /  /  /  / | /  /  /  / |

      G           G/D G/A   Gm6/Bb
e |---------3-------------|---0--------|
B |---3---3---------------|---3--------|
G |---0---------0---------|---3--------|
D |-----0----------0------|---0--------|
A |-------------------0---|---1--------|
E |---3-------------------|------------|

     D     D4    D    Dsus2  Gm6
||:  /  /__/  /__/  /__/   |  /  /  /  /  :|| [x2]


[Coda - Repeat]
     D      D4   D      Gm6
e |--2-------3---2----|--------------------------| [x6]
B |--3---3---------3--|--------------------------|
G |----2--------------|--0--0--0--0--0--0--0--0--|
D |--0----------------|--5-\3--2--0-----0--2-----|
A |-------------------|--------------3--------3--|
E |-------------------|--------------------------|


[End chord]
      D
e |---------2--||
B |-------3----||
G |-----2------||
D |---0--------||
A |------------||
E |------------||

            
            
Suggest correction
Creating personal tab
Creating personal tab
You can edit any tab online and save it as your Personal.

You can edit, replace or remove any tab part or add personal notes – all changes will be seen only by you.

Personal tabs can be accessed anytime from any device, even offline.
Learn more »
Give kudos to tab author, rate the tab!
1 2 3 4 5
comments
print report bad tab
guest
You may want to rate the tab now too:
select rating
Wanna post a correction for this tab? Suggest correction